0
SECTION
2
HEADER
9
$ACADVER
1
AC1012
9
$EXTMIN
10
-8.150000
20
13.380000
30
0.0
9
$EXTMAX
10
-2.850000
20
22.790000
30
0.0
9
$LIMMIN
10
-207.010000
20
339.852000
9
$LIMMAX
10
-72.390000
20
578.866000
9
$DIMSCALE
40
1.000000
9
$PDMODE
70
2
9
$PDSIZE
40
0.0
  9
$HANDSEED
  5
aa7
0
ENDSEC
0
SECTION
2
CLASSES
0
ENDSEC
0
SECTION
2
TABLES
0
TABLE
2
LTYPE
5
1e
100
AcDbSymbolTable
70
12
0
LTYPE
5
1f
100
AcDbSymbolTableRecord
100
AcDbLinetypeTableRecord
2
BYBLOCK
70
0
3

72
65
73
0
40
0.0
0
LTYPE
5
20
100
AcDbSymbolTableRecord
100
AcDbLinetypeTableRecord
2
BYLAYER
70
0
3

72
65
73
0
40
0.0
0
LTYPE
5
21
100
AcDbSymbolTableRecord
100
AcDbLinetypeTableRecord
2
CONTINUOUS
70
64
3
Solid line
72
65
73
0
40
0.0
0
LTYPE
5
22
100
AcDbSymbolTableRecord
100
AcDbLinetypeTableRecord
2
DASHED
70
64
3
__ __ __ __ __ __ __ __ __ __ __ __ __ __ __
72
65
73
2
40
0.75
49
0.5
74
0
49
-0.25
74
0
0
LTYPE
5
23
100
AcDbSymbolTableRecord
100
AcDbLinetypeTableRecord
2
DOT
70
64
3
...............................................
72
65
73
2
40
0.25
49
0.0
74
0
49
-0.25
74
0
0
LTYPE
5
24
100
AcDbSymbolTableRecord
100
AcDbLinetypeTableRecord
2
DASHDOT
70
64
3
__ . __ . __ . __ . __ . __ . __ . __ . __ . --
72
65
73
4
40
1.0
49
0.5
74
0
49
-0.25
74
0
49
0.0
74
0
49
-0.25
74
0
0
LTYPE
5
25
100
AcDbSymbolTableRecord
100
AcDbLinetypeTableRecord
2
CENTER
70
64
3
____ _ ____ _ ____ _ ____ _ ____ _ ____ _ ____
72
65
73
4
40
2.0
49
1.25
74
0
49
-0.25
74
0
49
0.25
74
0
49
-0.25
74
0
0
LTYPE
5
26
100
AcDbSymbolTableRecord
100
AcDbLinetypeTableRecord
2
PHANTOM
70
64
3
_____ _ _ _____ _ _ _____ _ _ _____ _ _ ____
72
65
73
6
40
2.5
49
1.25
74
0
49
-0.25
74
0
49
0.25
74
0
49
-0.25
74
0
49
0.25
74
0
49
-0.25
74
0
0
LTYPE
5
27
100
AcDbSymbolTableRecord
100
AcDbLinetypeTableRecord
2
HIDDEN
70
64
3
_ _ _ _ _ _ _ _ _ _ _ _ _ _ _ _ _ _ _ _ _ _ _
72
65
73
2
40
0.375
49
0.25
74
0
49
-0.125
74
0
0
LTYPE
5
28
100
AcDbSymbolTableRecord
100
AcDbLinetypeTableRecord
2
BORDER
70
64
3
__ __ . __ __ . __ __ . __ __ . __ __ . __ __
72
65
73
6
40
1.75
49
0.5
74
0
49
-0.25
74
0
49
0.5
74
0
49
-0.25
74
0
49
0.0
74
0
49
-0.25
74
0
0
LTYPE
5
29
100
AcDbSymbolTableRecord
100
AcDbLinetypeTableRecord
2
DIVIDE
70
64
3
__ . . __ . . __ . . __ . . __ . . __ . . __
72
65
73
6
40
1.25
49
0.5
74
0
49
-0.25
74
0
49
0.0
74
0
49
-0.25
74
0
49
0.0
74
0
49
-0.25
74
0
0
LTYPE
5
2a
100
AcDbSymbolTableRecord
100
AcDbLinetypeTableRecord
2
DOT2
70
64
3
...............................................
72
65
73
2
40
0.125
49
0.0
74
0
49
-0.125
74
0
0
ENDTAB
0
TABLE
2
STYLE
5
2b
100
AcDbSymbolTable
70
1
0
STYLE
5
2c
100
AcDbSymbolTableRecord
100
AcDbTextStyleTableRecord
2
STANDARD
70
64
40
0.0
41
1.0
50
0.0
71
0
42
5.0
3
txt
4
bigfont
0
ENDTAB
0
TABLE
2
LAYER
5
2d
100
AcDbSymbolTable
70
1
0
LAYER
5
2e
100
AcDbSymbolTableRecord
100
AcDbLayerTableRecord
2
0
70
0
62
7
6
CONTINUOUS
0
ENDTAB
0
TABLE
2
APPID
5
2f
100
AcDbSymbolTable
70
1
0
APPID
5
30
100
AcDbSymbolTableRecord
100
AcDbRegAppTableRecord
2
ACAD
70
64
0
ENDTAB
0
TABLE
2
DIMSTYLE
5
31
100
AcDbSymbolTable
70
0
0
ENDTAB
0
TABLE
2
UCS
5
32
100
AcDbSymbolTable
70
0
0
ENDTAB
0
TABLE
2
VIEW
5
33
100
AcDbSymbolTable
70
0
0
ENDTAB
0
TABLE
2
VPORT
5
34
100
AcDbSymbolTable
70
0
0
ENDTAB
0
TABLE
2
BLOCK_RECORD
5
35
100
AcDbSymbolTable
70
0
0
BLOCK_RECORD
5
36
100
AcDbSymbolTableRecord
100
AcDbBlockTableRecord
2
*MODEL_SPACE
0
BLOCK_RECORD
5
37
100
AcDbSymbolTableRecord
100
AcDbBlockTableRecord
2
*PAPER_SPACE
0
BLOCK_RECORD
5
38
100
AcDbSymbolTableRecord
100
AcDbBlockTableRecord
2
OPEN
0
BLOCK_RECORD
5
39
100
AcDbSymbolTableRecord
100
AcDbBlockTableRecord
2
HALF
0
BLOCK_RECORD
5
3a
100
AcDbSymbolTableRecord
100
AcDbBlockTableRecord
2
CLOSEDBLANK
0
BLOCK_RECORD
5
3b
100
AcDbSymbolTableRecord
100
AcDbBlockTableRecord
2
HALFCLOSE_R
0
BLOCK_RECORD
5
3c
100
AcDbSymbolTableRecord
100
AcDbBlockTableRecord
2
DOT
0
BLOCK_RECORD
5
3d
100
AcDbSymbolTableRecord
100
AcDbBlockTableRecord
2
HALFOPEN_R
0
BLOCK_RECORD
5
3e
100
AcDbSymbolTableRecord
100
AcDbBlockTableRecord
2
CLOSEDF
0
BLOCK_RECORD
5
3f
100
AcDbSymbolTableRecord
100
AcDbBlockTableRecord
2
HALF_R
0
ENDTAB
0
ENDSEC
0
SECTION
2
BLOCKS
0
BLOCK
5
40
100
AcDbEntity
8
0
100
AcDbBlockBegin
2
*MODEL_SPACE
70
0
10
0.0
20
0.0
30
0.0
3
*MODEL_SPACE
1

0
ENDBLK
5
41
100
AcDbEntity
8
0
100
AcDbBlockEnd
0
BLOCK
5
42
100
AcDbEntity
67
1
8
0
100
AcDbBlockBegin
2
*PAPER_SPACE
70
0
10
0.0
20
0.0
30
0.0
3
*PAPER_SPACE
1

0
ENDBLK
5
43
100
AcDbEntity
67
1
8
0
100
AcDbBlockEnd
0
BLOCK
5
44
100
AcDbEntity
8
0
100
AcDbBlockBegin
2
OPEN
70
0
10
0.0
20
0.0
30
0.0
3
OPEN
1

0
LINE
5
45
100
AcDbEntity
8
0
6
BYBLOCK
62
0
100
AcDbLine
10
0.000000
20
0.000000
11
-1.000000
21
0.000000
0
LINE
5
46
100
AcDbEntity
8
0
6
BYBLOCK
62
0
100
AcDbLine
10
-1.000000
20
-0.166667
11
0.000000
21
0.000000
0
LINE
5
47
100
AcDbEntity
8
0
6
BYBLOCK
62
0
100
AcDbLine
10
-1.000000
20
0.166667
11
0.000000
21
0.000000
0
ENDBLK
5
48
100
AcDbEntity
8
0
100
AcDbBlockEnd
0
BLOCK
5
49
100
AcDbEntity
8
0
100
AcDbBlockBegin
2
HALF
70
0
10
0.0
20
0.0
30
0.0
3
HALF
1

0
SOLID
5
4a
100
AcDbEntity
8
0
6
BYBLOCK
62
0
100
AcDbTrace
10
-1.000000
20
0.166667
11
-1.000000
21
-0.166667
12
0.000000
22
0.000000
13
0.000000
23
0.000000
0
ENDBLK
5
4b
100
AcDbEntity
8
0
100
AcDbBlockEnd
0
BLOCK
5
4c
100
AcDbEntity
8
0
100
AcDbBlockBegin
2
CLOSEDBLANK
70
0
10
0.0
20
0.0
30
0.0
3
CLOSEDBLANK
1

0
LINE
5
4d
100
AcDbEntity
8
0
6
BYBLOCK
62
0
100
AcDbLine
10
-1.000000
20
0.166667
11
-1.000000
21
-0.166667
0
LINE
5
4e
100
AcDbEntity
8
0
6
BYBLOCK
62
0
100
AcDbLine
10
0.000000
20
0.000000
11
-1.000000
21
-0.166667
0
LINE
5
4f
100
AcDbEntity
8
0
6
BYBLOCK
62
0
100
AcDbLine
10
-1.000000
20
0.166667
11
0.000000
21
0.000000
0
ENDBLK
5
50
100
AcDbEntity
8
0
100
AcDbBlockEnd
0
BLOCK
5
51
100
AcDbEntity
8
0
100
AcDbBlockBegin
2
HALFCLOSE_R
70
0
10
0.0
20
0.0
30
0.0
3
HALFCLOSE_R
1

0
LINE
5
52
100
AcDbEntity
8
0
6
BYBLOCK
62
0
100
AcDbLine
10
-1.000000
20
-0.166667
11
-1.000000
21
0.000000
0
LINE
5
53
100
AcDbEntity
8
0
6
BYBLOCK
62
0
100
AcDbLine
10
-1.000000
20
-0.166667
11
0.000000
21
0.000000
0
LINE
5
54
100
AcDbEntity
8
0
6
BYBLOCK
62
0
100
AcDbLine
10
0.000000
20
0.000000
11
-1.000000
21
0.000000
0
ENDBLK
5
55
100
AcDbEntity
8
0
100
AcDbBlockEnd
0
BLOCK
5
56
100
AcDbEntity
8
0
100
AcDbBlockBegin
2
DOT
70
0
10
0.0
20
0.0
30
0.0
3
DOT
1

0
LINE
5
57
100
AcDbEntity
8
0
6
BYBLOCK
62
0
100
AcDbLine
10
0.000000
20
0.000000
11
-1.000000
21
0.000000
0
POLYLINE
5
58
100
AcDbEntity
8
0
6
BYBLOCK
62
0
100
AcDb2dPolyline
66
1
10
0.0
20
0.0
30
0.0
70
1
40
0.166667
41
0.166667
0
VERTEX
5
59
100
AcDbEntity
8
0
100
AcDbVertex
100
AcDb2dVertex
62
12
10
-0.083333
20
0.000000
42
1.000000
0
VERTEX
5
5a
100
AcDbEntity
8
0
100
AcDbVertex
100
AcDb2dVertex
62
12
10
0.083333
20
0.000000
42
1.000000
0
SEQEND
5
5b
100
AcDbEntity
8
0
0
ENDBLK
5
5c
100
AcDbEntity
8
0
100
AcDbBlockEnd
0
BLOCK
5
5d
100
AcDbEntity
8
0
100
AcDbBlockBegin
2
HALFOPEN_R
70
0
10
0.0
20
0.0
30
0.0
3
HALFOPEN_R
1

0
LINE
5
5e
100
AcDbEntity
8
0
6
BYBLOCK
62
0
100
AcDbLine
10
-1.000000
20
-0.166667
11
0.000000
21
0.000000
0
LINE
5
5f
100
AcDbEntity
8
0
6
BYBLOCK
62
0
100
AcDbLine
10
0.000000
20
0.000000
11
-1.000000
21
0.000000
0
ENDBLK
5
60
100
AcDbEntity
8
0
100
AcDbBlockEnd
0
BLOCK
5
61
100
AcDbEntity
8
0
100
AcDbBlockBegin
2
CLOSEDF
70
0
10
0.0
20
0.0
30
0.0
3
CLOSEDF
1

0
SOLID
5
62
100
AcDbEntity
8
0
6
BYBLOCK
62
0
100
AcDbTrace
10
-1.000000
20
0.166667
11
-1.000000
21
-0.166667
12
0.000000
22
0.000000
13
0.000000
23
0.000000
0
ENDBLK
5
63
100
AcDbEntity
8
0
100
AcDbBlockEnd
0
BLOCK
5
64
100
AcDbEntity
8
0
100
AcDbBlockBegin
2
HALF_R
70
0
10
0.0
20
0.0
30
0.0
3
HALF_R
1

0
SOLID
5
65
100
AcDbEntity
8
0
6
BYBLOCK
62
0
100
AcDbTrace
10
-1.000000
20
-0.166667
11
-1.000000
21
0.000000
12
0.000000
22
0.000000
13
0.000000
23
0.000000
0
ENDBLK
5
66
100
AcDbEntity
8
0
100
AcDbBlockEnd
0
ENDSEC
0
SECTION
2
ENTITIES
0
LINE
5
67
100
AcDbEntity
8
0
100
AcDbLine
6
CONTINUOUS
62
5
10
-102.271472
20
545.941272
11
-102.221547
21
545.941272
0
LINE
5
68
100
AcDbEntity
8
0
100
AcDbLine
6
CONTINUOUS
62
5
10
-102.221547
20
544.228772
11
-102.221547
21
548.653774
0
LINE
5
69
100
AcDbEntity
8
0
100
AcDbLine
6
CONTINUOUS
62
5
10
-101.896535
20
544.266273
11
-101.896535
21
548.616273
0
LINE
5
6a
100
AcDbEntity
8
0
100
AcDbLine
6
CONTINUOUS
62
5
10
-102.271472
20
548.228774
11
-102.271472
21
544.653774
0
POLYLINE
5
6b
100
AcDbEntity
8
1
6
CONTINUOUS
62
5
100
AcDb2dPolyline
66
1
10
0.0
20
0.0
30
0.0
70
0
0
VERTEX
5
6c
100
AcDbEntity
8
1
100
AcDbVertex
100
AcDb2dVertex
62
5
10
-99.740285
20
539.703773
0
VERTEX
5
6d
100
AcDbEntity
8
1
100
AcDbVertex
100
AcDb2dVertex
62
5
10
-99.740285
20
540.641273
0
VERTEX
5
6e
100
AcDbEntity
8
1
100
AcDbVertex
100
AcDb2dVertex
62
5
10
-99.349660
20
539.703773
0
VERTEX
5
6f
100
AcDbEntity
8
1
100
AcDbVertex
100
AcDb2dVertex
62
5
10
-99.349660
20
540.641273
0
SEQEND
5
70
100
AcDbEntity
8
1
0
LINE
5
71
100
AcDbEntity
8
1
100
AcDbLine
6
CONTINUOUS
62
5
10
-101.537160
20
539.781898
11
-101.615285
21
539.703773
0
POLYLINE
5
72
100
AcDbEntity
8
1
6
CONTINUOUS
62
5
100
AcDb2dPolyline
66
1
10
0.0
20
0.0
30
0.0
70
0
0
VERTEX
5
73
100
AcDbEntity
8
1
100
AcDbVertex
100
AcDb2dVertex
62
5
10
-101.615285
20
539.781898
0
VERTEX
5
74
100
AcDbEntity
8
1
100
AcDbVertex
100
AcDb2dVertex
62
5
10
-101.537160
20
539.703773
0
VERTEX
5
75
100
AcDbEntity
8
1
100
AcDbVertex
100
AcDb2dVertex
62
5
10
-101.615285
20
539.703773
0
VERTEX
5
76
100
AcDbEntity
8
1
100
AcDbVertex
100
AcDb2dVertex
62
5
10
-101.615285
20
539.781898
0
VERTEX
5
77
100
AcDbEntity
8
1
100
AcDbVertex
100
AcDb2dVertex
62
5
10
-101.537160
20
539.781898
0
VERTEX
5
78
100
AcDbEntity
8
1
100
AcDbVertex
100
AcDb2dVertex
62
5
10
-101.537160
20
539.703773
0
SEQEND
5
79
100
AcDbEntity
8
1
0
LINE
5
7a
100
AcDbEntity
8
1
100
AcDbLine
6
CONTINUOUS
62
5
10
-102.865285
20
540.641273
11
-102.474660
21
539.703773
0
LINE
5
7b
100
AcDbEntity
8
1
100
AcDbLine
6
CONTINUOUS
62
5
10
-102.474660
20
540.641273
11
-102.865285
21
539.703773
0
LINE
5
7c
100
AcDbEntity
8
1
100
AcDbLine
6
CONTINUOUS
62
5
10
-102.240285
20
540.641273
11
-101.849660
21
540.641273
0
LINE
5
7d
100
AcDbEntity
8
1
100
AcDbLine
6
CONTINUOUS
62
5
10
-102.044972
20
540.641273
11
-102.044972
21
539.703773
0
LINE
5
7e
100
AcDbEntity
8
1
100
AcDbLine
6
CONTINUOUS
62
5
10
-100.990285
20
540.641273
11
-100.990285
21
539.703773
0
POLYLINE
5
7f
100
AcDbEntity
8
1
6
CONTINUOUS
62
5
100
AcDb2dPolyline
66
1
10
0.0
20
0.0
30
0.0
70
0
0
VERTEX
5
80
100
AcDbEntity
8
1
100
AcDbVertex
100
AcDb2dVertex
62
5
10
-100.990285
20
540.641273
0
VERTEX
5
81
100
AcDbEntity
8
1
100
AcDbVertex
100
AcDb2dVertex
62
5
10
-100.834035
20
540.641273
0
VERTEX
5
82
100
AcDbEntity
8
1
100
AcDbVertex
100
AcDb2dVertex
62
5
10
-100.716847
20
540.602210
0
VERTEX
5
83
100
AcDbEntity
8
1
100
AcDbVertex
100
AcDb2dVertex
62
5
10
-100.677785
20
540.563148
0
VERTEX
5
84
100
AcDbEntity
8
1
100
AcDbVertex
100
AcDb2dVertex
62
5
10
-100.638722
20
540.445960
0
VERTEX
5
85
100
AcDbEntity
8
1
100
AcDbVertex
100
AcDb2dVertex
62
5
10
-100.638722
20
540.328773
0
VERTEX
5
86
100
AcDbEntity
8
1
100
AcDbVertex
100
AcDb2dVertex
62
5
10
-100.677785
20
540.250648
0
VERTEX
5
87
100
AcDbEntity
8
1
100
AcDbVertex
100
AcDb2dVertex
62
5
10
-100.794972
20
540.172523
0
VERTEX
5
88
100
AcDbEntity
8
1
100
AcDbVertex
100
AcDb2dVertex
62
5
10
-100.990285
20
540.172523
0
SEQEND
5
89
100
AcDbEntity
8
1
0
POLYLINE
5
8a
100
AcDbEntity
8
1
6
CONTINUOUS
62
5
100
AcDb2dPolyline
66
1
10
0.0
20
0.0
30
0.0
70
0
0
VERTEX
5
8b
100
AcDbEntity
8
1
100
AcDbVertex
100
AcDb2dVertex
62
5
10
-100.794972
20
540.172523
0
VERTEX
5
8c
100
AcDbEntity
8
1
100
AcDbVertex
100
AcDb2dVertex
62
5
10
-100.716847
20
540.133460
0
VERTEX
5
8d
100
AcDbEntity
8
1
100
AcDbVertex
100
AcDb2dVertex
62
5
10
-100.677785
20
540.055335
0
VERTEX
5
8e
100
AcDbEntity
8
1
100
AcDbVertex
100
AcDb2dVertex
62
5
10
-100.677785
20
539.781898
0
VERTEX
5
8f
100
AcDbEntity
8
1
100
AcDbVertex
100
AcDb2dVertex
62
5
10
-100.638722
20
539.703773
0
VERTEX
5
90
100
AcDbEntity
8
1
100
AcDbVertex
100
AcDb2dVertex
62
5
10
-100.599660
20
539.703773
0
VERTEX
5
91
100
AcDbEntity
8
1
100
AcDbVertex
100
AcDb2dVertex
62
5
10
-100.560597
20
539.781898
0
SEQEND
5
92
100
AcDbEntity
8
1
0
POLYLINE
5
93
100
AcDbEntity
8
1
6
CONTINUOUS
62
5
100
AcDb2dPolyline
66
1
10
0.0
20
0.0
30
0.0
70
0
0
VERTEX
5
94
100
AcDbEntity
8
1
100
AcDbVertex
100
AcDb2dVertex
62
5
10
-100.365285
20
540.641273
0
VERTEX
5
95
100
AcDbEntity
8
1
100
AcDbVertex
100
AcDb2dVertex
62
5
10
-100.365285
20
539.899085
0
VERTEX
5
96
100
AcDbEntity
8
1
100
AcDbVertex
100
AcDb2dVertex
62
5
10
-100.326222
20
539.781898
0
VERTEX
5
97
100
AcDbEntity
8
1
100
AcDbVertex
100
AcDb2dVertex
62
5
10
-100.287160
20
539.742835
0
VERTEX
5
98
100
AcDbEntity
8
1
100
AcDbVertex
100
AcDb2dVertex
62
5
10
-100.209035
20
539.703773
0
VERTEX
5
99
100
AcDbEntity
8
1
100
AcDbVertex
100
AcDb2dVertex
62
5
10
-100.130910
20
539.703773
0
VERTEX
5
9a
100
AcDbEntity
8
1
100
AcDbVertex
100
AcDb2dVertex
62
5
10
-100.052785
20
539.742835
0
VERTEX
5
9b
100
AcDbEntity
8
1
100
AcDbVertex
100
AcDb2dVertex
62
5
10
-100.013722
20
539.781898
0
VERTEX
5
9c
100
AcDbEntity
8
1
100
AcDbVertex
100
AcDb2dVertex
62
5
10
-99.974660
20
539.899085
0
VERTEX
5
9d
100
AcDbEntity
8
1
100
AcDbVertex
100
AcDb2dVertex
62
5
10
-99.974660
20
540.641273
0
SEQEND
5
9e
100
AcDbEntity
8
1
0
ARC
5
9f
100
AcDbEntity
8
0
100
AcDbCircle
6
CONTINUOUS
62
5
10
-101.971547
20
544.266273
40
0.075000
100
AcDbArc
50
-89.999989
51
0.000000
0
ARC
5
a0
100
AcDbEntity
8
0
100
AcDbCircle
6
CONTINUOUS
62
5
10
-102.534047
20
544.791272
40
0.312500
100
AcDbArc
50
-130.537999
51
32.836000
0
ARC
5
a1
100
AcDbEntity
8
0
100
AcDbCircle
6
CONTINUOUS
62
5
10
-102.371472
20
544.653774
40
0.100000
100
AcDbArc
50
-89.999989
51
0.000000
0
POLYLINE
5
a2
100
AcDbEntity
8
1
6
CONTINUOUS
62
5
100
AcDb2dPolyline
66
1
10
0.0
20
0.0
30
0.0
70
0
0
VERTEX
5
a3
100
AcDbEntity
8
1
100
AcDbVertex
100
AcDb2dVertex
62
5
10
-104.740285
20
539.703773
0
VERTEX
5
a4
100
AcDbEntity
8
1
100
AcDbVertex
100
AcDb2dVertex
62
5
10
-104.740285
20
540.641273
0
VERTEX
5
a5
100
AcDbEntity
8
1
100
AcDbVertex
100
AcDb2dVertex
62
5
10
-104.349660
20
539.703773
0
VERTEX
5
a6
100
AcDbEntity
8
1
100
AcDbVertex
100
AcDb2dVertex
62
5
10
-104.349660
20
540.641273
0
SEQEND
5
a7
100
AcDbEntity
8
1
0
LINE
5
a8
100
AcDbEntity
8
0
100
AcDbLine
6
CONTINUOUS
62
5
10
-104.709035
20
536.441273
11
-105.084035
21
536.441273
0
LINE
5
a9
100
AcDbEntity
8
0
100
AcDbLine
6
CONTINUOUS
62
5
10
-105.109034
20
535.516148
11
-105.109034
21
537.366272
0
LINE
5
aa
100
AcDbEntity
8
0
100
AcDbLine
6
CONTINUOUS
62
5
10
-104.709035
20
536.441273
11
-104.684022
21
536.441273
0
LINE
5
ab
100
AcDbEntity
8
0
100
AcDbLine
6
CONTINUOUS
62
5
10
-104.684022
20
535.516148
11
-104.684022
21
537.366272
0
LINE
5
ac
100
AcDbEntity
8
0
100
AcDbLine
6
CONTINUOUS
62
5
10
-105.109034
20
536.041145
11
-105.084035
21
536.041145
0
LINE
5
ad
100
AcDbEntity
8
0
100
AcDbLine
6
CONTINUOUS
62
5
10
-105.109034
20
535.516148
11
-104.684022
21
535.516148
0
LINE
5
ae
100
AcDbEntity
8
0
100
AcDbLine
6
CONTINUOUS
62
5
10
-104.709035
20
536.041145
11
-104.684022
21
536.041145
0
LINE
5
af
100
AcDbEntity
8
0
100
AcDbLine
6
CONTINUOUS
62
5
10
-104.684022
20
536.241272
11
-104.709035
21
536.241272
0
LINE
5
b0
100
AcDbEntity
8
0
100
AcDbLine
6
CONTINUOUS
62
5
10
-104.709035
20
535.516148
11
-104.684022
21
535.516148
0
LINE
5
b1
100
AcDbEntity
8
0
100
AcDbLine
6
CONTINUOUS
62
5
10
-105.084035
20
536.678772
11
-105.109034
21
536.678772
0
LINE
5
b2
100
AcDbEntity
8
0
100
AcDbLine
6
CONTINUOUS
62
5
10
-105.109034
20
537.366272
11
-104.709035
21
537.366272
0
LINE
5
b3
100
AcDbEntity
8
0
100
AcDbLine
6
CONTINUOUS
62
5
10
-104.684022
20
537.066273
11
-104.709035
21
537.066273
0
LINE
5
b4
100
AcDbEntity
8
0
100
AcDbLine
6
CONTINUOUS
62
5
10
-104.709035
20
537.366272
11
-104.684022
21
537.366272
0
LINE
5
b5
100
AcDbEntity
8
0
100
AcDbLine
6
DASHED
62
5
10
-104.709035
20
538.916021
11
-105.084035
21
538.916021
0
LINE
5
b6
100
AcDbEntity
8
0
100
AcDbLine
6
CONTINUOUS
62
5
10
-103.896535
20
544.478772
11
-103.896535
21
544.553773
0
POLYLINE
5
b7
100
AcDbEntity
8
1
6
CONTINUOUS
62
5
100
AcDb2dPolyline
66
1
10
0.0
20
0.0
30
0.0
70
0
0
VERTEX
5
b8
100
AcDbEntity
8
1
100
AcDbVertex
100
AcDb2dVertex
62
5
10
-105.365285
20
540.641273
0
VERTEX
5
b9
100
AcDbEntity
8
1
100
AcDbVertex
100
AcDb2dVertex
62
5
10
-105.365285
20
539.899085
0
VERTEX
5
ba
100
AcDbEntity
8
1
100
AcDbVertex
100
AcDb2dVertex
62
5
10
-105.326222
20
539.781898
0
VERTEX
5
bb
100
AcDbEntity
8
1
100
AcDbVertex
100
AcDb2dVertex
62
5
10
-105.287160
20
539.742835
0
VERTEX
5
bc
100
AcDbEntity
8
1
100
AcDbVertex
100
AcDb2dVertex
62
5
10
-105.209035
20
539.703773
0
VERTEX
5
bd
100
AcDbEntity
8
1
100
AcDbVertex
100
AcDb2dVertex
62
5
10
-105.130910
20
539.703773
0
VERTEX
5
be
100
AcDbEntity
8
1
100
AcDbVertex
100
AcDb2dVertex
62
5
10
-105.052785
20
539.742835
0
VERTEX
5
bf
100
AcDbEntity
8
1
100
AcDbVertex
100
AcDb2dVertex
62
5
10
-105.013722
20
539.781898
0
VERTEX
5
c0
100
AcDbEntity
8
1
100
AcDbVertex
100
AcDb2dVertex
62
5
10
-104.974660
20
539.899085
0
VERTEX
5
c1
100
AcDbEntity
8
1
100
AcDbVertex
100
AcDb2dVertex
62
5
10
-104.974660
20
540.641273
0
SEQEND
5
c2
100
AcDbEntity
8
1
0
ARC
5
c3
100
AcDbEntity
8
0
100
AcDbCircle
6
CONTINUOUS
62
5
10
-104.896535
20
536.441273
40
1.875000
100
AcDbArc
50
-51.909990
51
84.260999
0
POLYLINE
5
c4
100
AcDbEntity
8
1
6
CONTINUOUS
62
5
100
AcDb2dPolyline
66
1
10
0.0
20
0.0
30
0.0
70
0
0
VERTEX
5
c5
100
AcDbEntity
8
1
100
AcDbVertex
100
AcDb2dVertex
62
5
10
-103.099660
20
540.641273
0
VERTEX
5
c6
100
AcDbEntity
8
1
100
AcDbVertex
100
AcDb2dVertex
62
5
10
-103.490285
20
540.641273
0
VERTEX
5
c7
100
AcDbEntity
8
1
100
AcDbVertex
100
AcDb2dVertex
62
5
10
-103.490285
20
539.703773
0
VERTEX
5
c8
100
AcDbEntity
8
1
100
AcDbVertex
100
AcDb2dVertex
62
5
10
-103.060597
20
539.703773
0
SEQEND
5
c9
100
AcDbEntity
8
1
0
LINE
5
ca
100
AcDbEntity
8
1
100
AcDbLine
6
CONTINUOUS
62
5
10
-103.490285
20
540.172523
11
-103.138722
21
540.172523
0
LINE
5
cb
100
AcDbEntity
8
0
100
AcDbLine
6
CONTINUOUS
62
5
10
-102.271472
20
546.941272
11
-102.221547
21
546.941272
0
ARC
5
cc
100
AcDbEntity
8
0
100
AcDbCircle
6
CONTINUOUS
62
5
10
-101.971547
20
548.616273
40
0.075000
100
AcDbArc
50
0.000000
51
89.999999
0
ARC
5
cd
100
AcDbEntity
8
0
100
AcDbCircle
6
CONTINUOUS
62
5
10
-102.371472
20
548.228774
40
0.100000
100
AcDbArc
50
0.000000
51
90.000000
0
ARC
5
ce
100
AcDbEntity
8
0
100
AcDbCircle
6
CONTINUOUS
62
5
10
-102.534047
20
548.091274
40
0.312500
100
AcDbArc
50
-32.835990
51
130.534498
0
LINE
5
cf
100
AcDbEntity
8
0
100
AcDbLine
6
CONTINUOUS
62
5
10
-103.896535
20
548.328773
11
-103.896535
21
548.403774
0
POLYLINE
5
d0
100
AcDbEntity
8
1
6
CONTINUOUS
62
5
100
AcDb2dPolyline
66
1
10
0.0
20
0.0
30
0.0
70
1
0
VERTEX
5
d1
100
AcDbEntity
8
1
100
AcDbVertex
100
AcDb2dVertex
62
5
10
-94.896535
20
532.366273
0
VERTEX
5
d2
100
AcDbEntity
8
1
100
AcDbVertex
100
AcDb2dVertex
62
5
10
-94.896535
20
530.016273
0
VERTEX
5
d3
100
AcDbEntity
8
1
100
AcDbVertex
100
AcDb2dVertex
62
5
10
-94.796535
20
530.016273
0
VERTEX
5
d4
100
AcDbEntity
8
1
100
AcDbVertex
100
AcDb2dVertex
62
5
10
-94.796535
20
532.366273
0
SEQEND
5
d5
100
AcDbEntity
8
1
0
ARC
5
d6
100
AcDbEntity
8
1
100
AcDbCircle
6
CONTINUOUS
62
5
10
-95.848916
20
531.191273
40
1.577381
100
AcDbArc
50
-48.150996
51
48.150996
0
CIRCLE
5
d7
100
AcDbEntity
8
1
100
AcDbCircle
6
CONTINUOUS
62
5
10
-98.021535
20
526.441273
40
0.787500
0
LINE
5
d8
100
AcDbEntity
8
1
100
AcDbLine
6
CONTINUOUS
62
5
10
-97.464688
20
526.998120
11
-98.578381
21
525.884426
0
LINE
5
d9
100
AcDbEntity
8
1
100
AcDbLine
6
CONTINUOUS
62
5
10
-97.703337
20
526.123075
11
-98.339733
21
526.759471
0
LINE
5
da
100
AcDbEntity
8
0
100
AcDbLine
6
CONTINUOUS
62
5
10
-101.896535
20
534.191272
11
-101.896535
21
538.691273
0
LINE
5
db
100
AcDbEntity
8
0
100
AcDbLine
6
CONTINUOUS
62
5
10
-101.971535
20
534.253772
11
-101.971535
21
538.628773
0
ARC
5
dc
100
AcDbEntity
8
0
100
AcDbCircle
6
CONTINUOUS
62
5
10
-104.896535
20
536.441273
40
1.875000
100
AcDbArc
50
-84.260989
51
-60.486999
0
LINE
5
dd
100
AcDbEntity
8
0
100
AcDbLine
6
DASHED
62
5
10
-105.084035
20
533.966270
11
-105.084035
21
538.916021
0
LINE
5
de
100
AcDbEntity
8
0
100
AcDbLine
6
DASHED
62
5
10
-104.709035
20
533.966270
11
-104.709035
21
538.916021
0
LINE
5
df
100
AcDbEntity
8
0
100
AcDbLine
6
DASHED
62
5
10
-104.709035
20
533.966270
11
-105.084035
21
533.966270
0
POLYLINE
5
e0
100
AcDbEntity
8
1
6
CONTINUOUS
62
5
100
AcDb2dPolyline
66
1
10
0.0
20
0.0
30
0.0
70
0
0
VERTEX
5
e1
100
AcDbEntity
8
1
100
AcDbVertex
100
AcDb2dVertex
62
5
10
-119.662160
20
552.691273
0
VERTEX
5
e2
100
AcDbEntity
8
1
100
AcDbVertex
100
AcDb2dVertex
62
5
10
-120.052785
20
552.691273
0
VERTEX
5
e3
100
AcDbEntity
8
1
100
AcDbVertex
100
AcDb2dVertex
62
5
10
-120.052785
20
551.753773
0
VERTEX
5
e4
100
AcDbEntity
8
1
100
AcDbVertex
100
AcDb2dVertex
62
5
10
-119.623097
20
551.753773
0
SEQEND
5
e5
100
AcDbEntity
8
1
0
LINE
5
e6
100
AcDbEntity
8
1
100
AcDbLine
6
CONTINUOUS
62
5
10
-120.052785
20
552.222523
11
-119.701222
21
552.222523
0
ARC
5
e7
100
AcDbEntity
8
1
100
AcDbCircle
6
CONTINUOUS
62
5
10
-119.646535
20
554.988892
40
1.577381
100
AcDbArc
50
41.849003
51
138.150995
0
POLYLINE
5
e8
100
AcDbEntity
8
1
6
CONTINUOUS
62
5
100
AcDb2dPolyline
66
1
10
0.0
20
0.0
30
0.0
70
1
0
VERTEX
5
e9
100
AcDbEntity
8
1
100
AcDbVertex
100
AcDb2dVertex
62
5
10
-120.821535
20
555.941273
0
VERTEX
5
ea
100
AcDbEntity
8
1
100
AcDbVertex
100
AcDb2dVertex
62
5
10
-118.471535
20
555.941273
0
VERTEX
5
eb
100
AcDbEntity
8
1
100
AcDbVertex
100
AcDb2dVertex
62
5
10
-118.471535
20
556.041273
0
VERTEX
5
ec
100
AcDbEntity
8
1
100
AcDbVertex
100
AcDb2dVertex
62
5
10
-120.821535
20
556.041273
0
SEQEND
5
ed
100
AcDbEntity
8
1
0
POLYLINE
5
ee
100
AcDbEntity
8
1
6
CONTINUOUS
62
5
100
AcDb2dPolyline
66
1
10
0.0
20
0.0
30
0.0
70
0
0
VERTEX
5
ef
100
AcDbEntity
8
1
100
AcDbVertex
100
AcDb2dVertex
62
5
10
-115.287160
20
552.495960
0
VERTEX
5
f0
100
AcDbEntity
8
1
100
AcDbVertex
100
AcDb2dVertex
62
5
10
-115.326222
20
552.613148
0
VERTEX
5
f1
100
AcDbEntity
8
1
100
AcDbVertex
100
AcDb2dVertex
62
5
10
-115.404347
20
552.691273
0
VERTEX
5
f2
100
AcDbEntity
8
1
100
AcDbVertex
100
AcDb2dVertex
62
5
10
-115.521535
20
552.691273
0
VERTEX
5
f3
100
AcDbEntity
8
1
100
AcDbVertex
100
AcDb2dVertex
62
5
10
-115.638722
20
552.574085
0
VERTEX
5
f4
100
AcDbEntity
8
1
100
AcDbVertex
100
AcDb2dVertex
62
5
10
-115.677785
20
552.378773
0
VERTEX
5
f5
100
AcDbEntity
8
1
100
AcDbVertex
100
AcDb2dVertex
62
5
10
-115.677785
20
552.066273
0
VERTEX
5
f6
100
AcDbEntity
8
1
100
AcDbVertex
100
AcDb2dVertex
62
5
10
-115.638722
20
551.870960
0
VERTEX
5
f7
100
AcDbEntity
8
1
100
AcDbVertex
100
AcDb2dVertex
62
5
10
-115.521535
20
551.753773
0
VERTEX
5
f8
100
AcDbEntity
8
1
100
AcDbVertex
100
AcDb2dVertex
62
5
10
-115.404347
20
551.753773
0
VERTEX
5
f9
100
AcDbEntity
8
1
100
AcDbVertex
100
AcDb2dVertex
62
5
10
-115.326222
20
551.831898
0
VERTEX
5
fa
100
AcDbEntity
8
1
100
AcDbVertex
100
AcDb2dVertex
62
5
10
-115.248097
20
552.027210
0
SEQEND
5
fb
100
AcDbEntity
8
1
0
POLYLINE
5
fc
100
AcDbEntity
8
1
6
CONTINUOUS
62
5
100
AcDb2dPolyline
66
1
10
0.0
20
0.0
30
0.0
70
0
0
VERTEX
5
fd
100
AcDbEntity
8
1
100
AcDbVertex
100
AcDb2dVertex
62
5
10
-117.201222
20
552.495960
0
VERTEX
5
fe
100
AcDbEntity
8
1
100
AcDbVertex
100
AcDb2dVertex
62
5
10
-117.240285
20
552.613148
0
VERTEX
5
ff
100
AcDbEntity
8
1
100
AcDbVertex
100
AcDb2dVertex
62
5
10
-117.318410
20
552.691273
0
VERTEX
5
100
100
AcDbEntity
8
1
100
AcDbVertex
100
AcDb2dVertex
62
5
10
-117.435597
20
552.691273
0
VERTEX
5
101
100
AcDbEntity
8
1
100
AcDbVertex
100
AcDb2dVertex
62
5
10
-117.513722
20
552.613148
0
VERTEX
5
102
100
AcDbEntity
8
1
100
AcDbVertex
100
AcDb2dVertex
62
5
10
-117.552785
20
552.535023
0
VERTEX
5
103
100
AcDbEntity
8
1
100
AcDbVertex
100
AcDb2dVertex
62
5
10
-117.591847
20
552.339710
0
VERTEX
5
104
100
AcDbEntity
8
1
100
AcDbVertex
100
AcDb2dVertex
62
5
10
-117.591847
20
552.105335
0
VERTEX
5
105
100
AcDbEntity
8
1
100
AcDbVertex
100
AcDb2dVertex
62
5
10
-117.552785
20
551.910023
0
VERTEX
5
106
100
AcDbEntity
8
1
100
AcDbVertex
100
AcDb2dVertex
62
5
10
-117.513722
20
551.831898
0
VERTEX
5
107
100
AcDbEntity
8
1
100
AcDbVertex
100
AcDb2dVertex
62
5
10
-117.435597
20
551.753773
0
VERTEX
5
108
100
AcDbEntity
8
1
100
AcDbVertex
100
AcDb2dVertex
62
5
10
-117.318410
20
551.753773
0
VERTEX
5
109
100
AcDbEntity
8
1
100
AcDbVertex
100
AcDb2dVertex
62
5
10
-117.240285
20
551.831898
0
VERTEX
5
10a
100
AcDbEntity
8
1
100
AcDbVertex
100
AcDb2dVertex
62
5
10
-117.201222
20
551.910023
0
SEQEND
5
10b
100
AcDbEntity
8
1
0
LINE
5
10c
100
AcDbEntity
8
1
100
AcDbLine
6
CONTINUOUS
62
5
10
-117.279347
20
552.183460
11
-117.123097
21
552.183460
0
LINE
5
10d
100
AcDbEntity
8
1
100
AcDbLine
6
CONTINUOUS
62
5
10
-117.201222
20
552.183460
11
-117.201222
21
551.753773
0
POLYLINE
5
10e
100
AcDbEntity
8
1
6
CONTINUOUS
62
5
100
AcDb2dPolyline
66
1
10
0.0
20
0.0
30
0.0
70
0
0
VERTEX
5
10f
100
AcDbEntity
8
1
100
AcDbVertex
100
AcDb2dVertex
62
5
10
-116.537160
20
552.691273
0
VERTEX
5
110
100
AcDbEntity
8
1
100
AcDbVertex
100
AcDb2dVertex
62
5
10
-116.927785
20
552.691273
0
VERTEX
5
111
100
AcDbEntity
8
1
100
AcDbVertex
100
AcDb2dVertex
62
5
10
-116.927785
20
551.753773
0
VERTEX
5
112
100
AcDbEntity
8
1
100
AcDbVertex
100
AcDb2dVertex
62
5
10
-116.498097
20
551.753773
0
SEQEND
5
113
100
AcDbEntity
8
1
0
LINE
5
114
100
AcDbEntity
8
1
100
AcDbLine
6
CONTINUOUS
62
5
10
-116.927785
20
552.222523
11
-116.576222
21
552.222523
0
POLYLINE
5
115
100
AcDbEntity
8
1
6
CONTINUOUS
62
5
100
AcDb2dPolyline
66
1
10
0.0
20
0.0
30
0.0
70
0
0
VERTEX
5
116
100
AcDbEntity
8
1
100
AcDbVertex
100
AcDb2dVertex
62
5
10
-119.427785
20
551.753773
0
VERTEX
5
117
100
AcDbEntity
8
1
100
AcDbVertex
100
AcDb2dVertex
62
5
10
-119.427785
20
552.691273
0
VERTEX
5
118
100
AcDbEntity
8
1
100
AcDbVertex
100
AcDb2dVertex
62
5
10
-119.232472
20
551.753773
0
VERTEX
5
119
100
AcDbEntity
8
1
100
AcDbVertex
100
AcDb2dVertex
62
5
10
-119.037160
20
552.691273
0
VERTEX
5
11a
100
AcDbEntity
8
1
100
AcDbVertex
100
AcDb2dVertex
62
5
10
-119.037160
20
551.753773
0
SEQEND
5
11b
100
AcDbEntity
8
1
0
POLYLINE
5
11c
100
AcDbEntity
8
1
6
CONTINUOUS
62
5
100
AcDb2dPolyline
66
1
10
0.0
20
0.0
30
0.0
70
0
0
VERTEX
5
11d
100
AcDbEntity
8
1
100
AcDbVertex
100
AcDb2dVertex
62
5
10
-118.412160
20
552.691273
0
VERTEX
5
11e
100
AcDbEntity
8
1
100
AcDbVertex
100
AcDb2dVertex
62
5
10
-118.802785
20
552.691273
0
VERTEX
5
11f
100
AcDbEntity
8
1
100
AcDbVertex
100
AcDb2dVertex
62
5
10
-118.802785
20
551.753773
0
VERTEX
5
120
100
AcDbEntity
8
1
100
AcDbVertex
100
AcDb2dVertex
62
5
10
-118.373097
20
551.753773
0
SEQEND
5
121
100
AcDbEntity
8
1
0
LINE
5
122
100
AcDbEntity
8
1
100
AcDbLine
6
CONTINUOUS
62
5
10
-118.802785
20
552.222523
11
-118.451222
21
552.222523
0
LINE
5
123
100
AcDbEntity
8
1
100
AcDbLine
6
CONTINUOUS
62
5
10
-118.177785
20
552.691273
11
-118.177785
21
551.753773
0
POLYLINE
5
124
100
AcDbEntity
8
1
6
CONTINUOUS
62
5
100
AcDb2dPolyline
66
1
10
0.0
20
0.0
30
0.0
70
0
0
VERTEX
5
125
100
AcDbEntity
8
1
100
AcDbVertex
100
AcDb2dVertex
62
5
10
-118.177785
20
552.691273
0
VERTEX
5
126
100
AcDbEntity
8
1
100
AcDbVertex
100
AcDb2dVertex
62
5
10
-118.021535
20
552.691273
0
VERTEX
5
127
100
AcDbEntity
8
1
100
AcDbVertex
100
AcDb2dVertex
62
5
10
-117.904347
20
552.652210
0
VERTEX
5
128
100
AcDbEntity
8
1
100
AcDbVertex
100
AcDb2dVertex
62
5
10
-117.865285
20
552.613148
0
VERTEX
5
129
100
AcDbEntity
8
1
100
AcDbVertex
100
AcDb2dVertex
62
5
10
-117.826222
20
552.495960
0
VERTEX
5
12a
100
AcDbEntity
8
1
100
AcDbVertex
100
AcDb2dVertex
62
5
10
-117.826222
20
552.378773
0
VERTEX
5
12b
100
AcDbEntity
8
1
100
AcDbVertex
100
AcDb2dVertex
62
5
10
-117.865285
20
552.300648
0
VERTEX
5
12c
100
AcDbEntity
8
1
100
AcDbVertex
100
AcDb2dVertex
62
5
10
-117.982472
20
552.222523
0
VERTEX
5
12d
100
AcDbEntity
8
1
100
AcDbVertex
100
AcDb2dVertex
62
5
10
-118.177785
20
552.222523
0
SEQEND
5
12e
100
AcDbEntity
8
1
0
POLYLINE
5
12f
100
AcDbEntity
8
1
6
CONTINUOUS
62
5
100
AcDb2dPolyline
66
1
10
0.0
20
0.0
30
0.0
70
0
0
VERTEX
5
130
100
AcDbEntity
8
1
100
AcDbVertex
100
AcDb2dVertex
62
5
10
-117.982472
20
552.222523
0
VERTEX
5
131
100
AcDbEntity
8
1
100
AcDbVertex
100
AcDb2dVertex
62
5
10
-117.904347
20
552.183460
0
VERTEX
5
132
100
AcDbEntity
8
1
100
AcDbVertex
100
AcDb2dVertex
62
5
10
-117.865285
20
552.105335
0
VERTEX
5
133
100
AcDbEntity
8
1
100
AcDbVertex
100
AcDb2dVertex
62
5
10
-117.865285
20
551.831898
0
VERTEX
5
134
100
AcDbEntity
8
1
100
AcDbVertex
100
AcDb2dVertex
62
5
10
-117.826222
20
551.753773
0
VERTEX
5
135
100
AcDbEntity
8
1
100
AcDbVertex
100
AcDb2dVertex
62
5
10
-117.787160
20
551.753773
0
VERTEX
5
136
100
AcDbEntity
8
1
100
AcDbVertex
100
AcDb2dVertex
62
5
10
-117.748097
20
551.831898
0
SEQEND
5
137
100
AcDbEntity
8
1
0
POLYLINE
5
138
100
AcDbEntity
8
1
6
CONTINUOUS
62
5
100
AcDb2dPolyline
66
1
10
0.0
20
0.0
30
0.0
70
0
0
VERTEX
5
139
100
AcDbEntity
8
1
100
AcDbVertex
100
AcDb2dVertex
62
5
10
-116.302785
20
551.753773
0
VERTEX
5
13a
100
AcDbEntity
8
1
100
AcDbVertex
100
AcDb2dVertex
62
5
10
-116.302785
20
552.691273
0
VERTEX
5
13b
100
AcDbEntity
8
1
100
AcDbVertex
100
AcDb2dVertex
62
5
10
-115.912160
20
551.753773
0
VERTEX
5
13c
100
AcDbEntity
8
1
100
AcDbVertex
100
AcDb2dVertex
62
5
10
-115.912160
20
552.691273
0
SEQEND
5
13d
100
AcDbEntity
8
1
0
LINE
5
13e
100
AcDbEntity
8
1
100
AcDbLine
6
CONTINUOUS
62
5
10
-117.396535
20
550.116245
11
-117.494700
21
550.189971
0
LINE
5
13f
100
AcDbEntity
8
1
100
AcDbLine
6
CONTINUOUS
62
5
10
-117.204196
20
550.111211
11
-117.298373
21
550.189974
0
LINE
5
140
100
AcDbEntity
8
1
100
AcDbLine
6
CONTINUOUS
62
5
10
-117.102313
20
550.179691
11
-117.204204
21
550.111209
0
LINE
5
141
100
AcDbEntity
8
1
100
AcDbLine
6
CONTINUOUS
62
5
10
-117.012395
20
550.096118
11
-117.102315
21
550.179691
0
LINE
5
142
100
AcDbEntity
8
1
100
AcDbLine
6
CONTINUOUS
62
5
10
-117.298373
20
550.189972
11
-117.396535
21
550.116244
0
LINE
5
143
100
AcDbEntity
8
1
100
AcDbLine
6
CONTINUOUS
62
5
10
-116.713155
20
550.128468
11
-116.821645
21
550.071003
0
LINE
5
144
100
AcDbEntity
8
1
100
AcDbLine
6
CONTINUOUS
62
5
10
-116.632464
20
550.035935
11
-116.713153
21
550.128468
0
LINE
5
145
100
AcDbEntity
8
1
100
AcDbLine
6
CONTINUOUS
62
5
10
-116.821643
20
550.071003
11
-116.907062
21
550.159166
0
LINE
5
146
100
AcDbEntity
8
1
100
AcDbLine
6
CONTINUOUS
62
5
10
-116.907064
20
550.159165
11
-117.012395
21
550.096119
0
LINE
5
147
100
AcDbEntity
8
1
100
AcDbLine
6
CONTINUOUS
62
5
10
-117.588874
20
550.111209
11
-117.690757
21
550.179692
0
LINE
5
148
100
AcDbEntity
8
1
100
AcDbLine
6
CONTINUOUS
62
5
10
-117.494704
20
550.189972
11
-117.588876
21
550.111211
0
LINE
5
149
100
AcDbEntity
8
1
100
AcDbLine
6
CONTINUOUS
62
5
10
-117.690755
20
550.179691
11
-117.780673
21
550.096119
0
LINE
5
14a
100
AcDbEntity
8
1
100
AcDbLine
6
CONTINUOUS
62
5
10
-117.780673
20
550.096119
11
-117.886004
21
550.159164
0
LINE
5
14b
100
AcDbEntity
8
1
100
AcDbLine
6
CONTINUOUS
62
5
10
-117.886006
20
550.159164
11
-117.971429
21
550.071003
0
LINE
5
14c
100
AcDbEntity
8
1
100
AcDbLine
6
CONTINUOUS
62
5
10
-117.971429
20
550.071005
11
-118.079919
21
550.128470
0
LINE
5
14d
100
AcDbEntity
8
1
100
AcDbLine
6
CONTINUOUS
62
5
10
-118.347690
20
549.991016
11
-118.461591
21
550.036820
0
LINE
5
14e
100
AcDbEntity
8
1
100
AcDbLine
6
CONTINUOUS
62
5
10
-118.160602
20
550.035935
11
-118.271953
21
550.087636
0
LINE
5
14f
100
AcDbEntity
8
1
100
AcDbLine
6
CONTINUOUS
62
5
10
-118.271953
20
550.087633
11
-118.347690
21
549.991031
0
LINE
5
150
100
AcDbEntity
8
1
100
AcDbLine
6
CONTINUOUS
62
5
10
-118.079919
20
550.128468
11
-118.160604
21
550.035935
0
LINE
5
151
100
AcDbEntity
8
1
100
AcDbLine
6
CONTINUOUS
62
5
10
-118.461591
20
550.036820
11
-118.532170
21
549.936375
0
LINE
5
152
100
AcDbEntity
8
1
100
AcDbLine
6
CONTINUOUS
62
5
10
-119.064931
20
549.715686
11
-119.185874
21
549.736819
0
LINE
5
153
100
AcDbEntity
8
1
100
AcDbLine
6
CONTINUOUS
62
5
10
-119.010943
20
549.825947
11
-119.064937
21
549.715701
0
LINE
5
154
100
AcDbEntity
8
1
100
AcDbLine
6
CONTINUOUS
62
5
10
-118.891278
20
549.798526
11
-119.010945
21
549.825946
0
LINE
5
155
100
AcDbEntity
8
1
100
AcDbLine
6
CONTINUOUS
62
5
10
-118.831594
20
549.905795
11
-118.891286
21
549.798527
0
LINE
5
156
100
AcDbEntity
8
1
100
AcDbLine
6
CONTINUOUS
62
5
10
-118.713519
20
549.872153
11
-118.831592
21
549.905799
0
LINE
5
157
100
AcDbEntity
8
1
100
AcDbLine
6
CONTINUOUS
62
5
10
-118.648303
20
549.976154
11
-118.713527
21
549.872151
0
LINE
5
158
100
AcDbEntity
8
1
100
AcDbLine
6
CONTINUOUS
62
5
10
-118.532163
20
549.936373
11
-118.648305
21
549.976153
0
LINE
5
159
100
AcDbEntity
8
1
100
AcDbLine
6
CONTINUOUS
62
5
10
-116.260898
20
549.936388
11
-116.331486
21
550.036839
0
LINE
5
15a
100
AcDbEntity
8
1
100
AcDbLine
6
CONTINUOUS
62
5
10
-116.445377
20
549.991034
11
-116.521121
21
550.087651
0
LINE
5
15b
100
AcDbEntity
8
1
100
AcDbLine
6
CONTINUOUS
62
5
10
-116.331485
20
550.036840
11
-116.445379
21
549.991033
0
LINE
5
15c
100
AcDbEntity
8
1
100
AcDbLine
6
CONTINUOUS
62
5
10
-116.521123
20
550.087650
11
-116.632464
21
550.035955
0
LINE
5
15d
100
AcDbEntity
8
1
100
AcDbLine
6
CONTINUOUS
62
5
10
-115.728122
20
549.715704
11
-115.782123
21
549.825962
0
LINE
5
15e
100
AcDbEntity
8
1
100
AcDbLine
6
CONTINUOUS
62
5
10
-115.607198
20
549.736820
11
-115.728123
21
549.715702
0
LINE
5
15f
100
AcDbEntity
8
1
100
AcDbLine
6
CONTINUOUS
62
5
10
-115.901783
20
549.798528
11
-115.961475
21
549.905812
0
LINE
5
160
100
AcDbEntity
8
1
100
AcDbLine
6
CONTINUOUS
62
5
10
-115.782123
20
549.825963
11
-115.901782
21
549.798543
0
LINE
5
161
100
AcDbEntity
8
1
100
AcDbLine
6
CONTINUOUS
62
5
10
-115.961483
20
549.905810
11
-116.079539
21
549.872161
0
LINE
5
162
100
AcDbEntity
8
1
100
AcDbLine
6
CONTINUOUS
62
5
10
-116.144766
20
549.976172
11
-116.260899
21
549.936392
0
LINE
5
163
100
AcDbEntity
8
1
100
AcDbLine
6
CONTINUOUS
62
5
10
-116.079539
20
549.872161
11
-116.144765
21
549.976170
0
LINE
5
164
100
AcDbEntity
8
1
100
AcDbLine
6
CONTINUOUS
62
5
10
-115.052785
20
552.691273
11
-114.857472
21
552.183460
0
POLYLINE
5
165
100
AcDbEntity
8
1
6
CONTINUOUS
62
5
100
AcDb2dPolyline
66
1
10
0.0
20
0.0
30
0.0
70
0
0
VERTEX
5
166
100
AcDbEntity
8
1
100
AcDbVertex
100
AcDb2dVertex
62
5
10
-114.662160
20
552.691273
0
VERTEX
5
167
100
AcDbEntity
8
1
100
AcDbVertex
100
AcDb2dVertex
62
5
10
-114.857472
20
552.183460
0
VERTEX
5
168
100
AcDbEntity
8
1
100
AcDbVertex
100
AcDb2dVertex
62
5
10
-114.857472
20
551.753773
0
SEQEND
5
169
100
AcDbEntity
8
1
0
LINE
5
16a
100
AcDbEntity
8
0
100
AcDbLine
6
CONTINUOUS
62
5
10
-107.521598
20
545.941272
11
-107.571547
21
545.941272
0
LINE
5
16b
100
AcDbEntity
8
1
100
AcDbLine
6
CONTINUOUS
62
5
10
-113.678623
20
545.951801
11
-113.741674
21
546.057133
0
LINE
5
16c
100
AcDbEntity
8
1
100
AcDbLine
6
CONTINUOUS
62
5
10
-113.766789
20
545.866383
11
-113.678624
21
545.951801
0
LINE
5
16d
100
AcDbEntity
8
1
100
AcDbLine
6
CONTINUOUS
62
5
10
-113.709340
20
545.757895
11
-113.766788
21
545.866385
0
LINE
5
16e
100
AcDbEntity
8
0
100
AcDbLine
6
CONTINUOUS
62
5
10
-107.571547
20
544.228772
11
-107.571547
21
548.653774
0
LINE
5
16f
100
AcDbEntity
8
0
100
AcDbLine
6
CONTINUOUS
62
5
10
-107.896535
20
544.266273
11
-107.896535
21
548.616273
0
LINE
5
170
100
AcDbEntity
8
0
100
AcDbLine
6
CONTINUOUS
62
5
10
-107.521598
20
548.228774
11
-107.521598
21
544.653774
0
LINE
5
171
100
AcDbEntity
8
1
100
AcDbLine
6
CONTINUOUS
62
5
10
-107.240285
20
540.641273
11
-107.240285
21
539.703773
0
LINE
5
172
100
AcDbEntity
8
1
100
AcDbLine
6
CONTINUOUS
62
5
10
-107.240285
20
540.172523
11
-106.888722
21
540.172523
0
LINE
5
173
100
AcDbEntity
8
1
100
AcDbLine
6
CONTINUOUS
62
5
10
-106.888722
20
540.641273
11
-106.888722
21
539.703773
0
LINE
5
174
100
AcDbEntity
8
1
100
AcDbLine
6
CONTINUOUS
62
5
10
-109.740285
20
540.641273
11
-109.349660
21
540.641273
0
LINE
5
175
100
AcDbEntity
8
1
100
AcDbLine
6
CONTINUOUS
62
5
10
-109.544972
20
540.641273
11
-109.544972
21
539.703773
0
POLYLINE
5
176
100
AcDbEntity
8
1
6
CONTINUOUS
62
5
100
AcDb2dPolyline
66
1
10
0.0
20
0.0
30
0.0
70
0
0
VERTEX
5
177
100
AcDbEntity
8
1
100
AcDbVertex
100
AcDb2dVertex
62
5
10
-108.724660
20
540.641273
0
VERTEX
5
178
100
AcDbEntity
8
1
100
AcDbVertex
100
AcDb2dVertex
62
5
10
-109.115285
20
540.641273
0
VERTEX
5
179
100
AcDbEntity
8
1
100
AcDbVertex
100
AcDb2dVertex
62
5
10
-109.115285
20
539.703773
0
VERTEX
5
17a
100
AcDbEntity
8
1
100
AcDbVertex
100
AcDb2dVertex
62
5
10
-108.685597
20
539.703773
0
SEQEND
5
17b
100
AcDbEntity
8
1
0
LINE
5
17c
100
AcDbEntity
8
1
100
AcDbLine
6
CONTINUOUS
62
5
10
-109.115285
20
540.172523
11
-108.763722
21
540.172523
0
POLYLINE
5
17d
100
AcDbEntity
8
1
6
CONTINUOUS
62
5
100
AcDb2dPolyline
66
1
10
0.0
20
0.0
30
0.0
70
0
0
VERTEX
5
17e
100
AcDbEntity
8
1
100
AcDbVertex
100
AcDb2dVertex
62
5
10
-108.490285
20
539.703773
0
VERTEX
5
17f
100
AcDbEntity
8
1
100
AcDbVertex
100
AcDb2dVertex
62
5
10
-108.294972
20
540.641273
0
VERTEX
5
180
100
AcDbEntity
8
1
100
AcDbVertex
100
AcDb2dVertex
62
5
10
-108.099660
20
539.703773
0
SEQEND
5
181
100
AcDbEntity
8
1
0
LINE
5
182
100
AcDbEntity
8
1
100
AcDbLine
6
CONTINUOUS
62
5
10
-108.412160
20
540.016273
11
-108.177785
21
540.016273
0
POLYLINE
5
183
100
AcDbEntity
8
1
6
CONTINUOUS
62
5
100
AcDb2dPolyline
66
1
10
0.0
20
0.0
30
0.0
70
0
0
VERTEX
5
184
100
AcDbEntity
8
1
100
AcDbVertex
100
AcDb2dVertex
62
5
10
-107.474660
20
540.445960
0
VERTEX
5
185
100
AcDbEntity
8
1
100
AcDbVertex
100
AcDb2dVertex
62
5
10
-107.513722
20
540.563148
0
VERTEX
5
186
100
AcDbEntity
8
1
100
AcDbVertex
100
AcDb2dVertex
62
5
10
-107.591847
20
540.641273
0
VERTEX
5
187
100
AcDbEntity
8
1
100
AcDbVertex
100
AcDb2dVertex
62
5
10
-107.709035
20
540.641273
0
VERTEX
5
188
100
AcDbEntity
8
1
100
AcDbVertex
100
AcDb2dVertex
62
5
10
-107.826222
20
540.524085
0
VERTEX
5
189
100
AcDbEntity
8
1
100
AcDbVertex
100
AcDb2dVertex
62
5
10
-107.865285
20
540.328773
0
VERTEX
5
18a
100
AcDbEntity
8
1
100
AcDbVertex
100
AcDb2dVertex
62
5
10
-107.865285
20
540.016273
0
VERTEX
5
18b
100
AcDbEntity
8
1
100
AcDbVertex
100
AcDb2dVertex
62
5
10
-107.826222
20
539.820960
0
VERTEX
5
18c
100
AcDbEntity
8
1
100
AcDbVertex
100
AcDb2dVertex
62
5
10
-107.709035
20
539.703773
0
VERTEX
5
18d
100
AcDbEntity
8
1
100
AcDbVertex
100
AcDb2dVertex
62
5
10
-107.591847
20
539.703773
0
VERTEX
5
18e
100
AcDbEntity
8
1
100
AcDbVertex
100
AcDb2dVertex
62
5
10
-107.513722
20
539.781898
0
VERTEX
5
18f
100
AcDbEntity
8
1
100
AcDbVertex
100
AcDb2dVertex
62
5
10
-107.435597
20
539.977210
0
SEQEND
5
190
100
AcDbEntity
8
1
0
ARC
5
191
100
AcDbEntity
8
0
100
AcDbCircle
6
CONTINUOUS
62
5
10
-107.821547
20
544.266273
40
0.075000
100
AcDbArc
50
-179.999995
51
-89.999989
0
ARC
5
192
100
AcDbEntity
8
0
100
AcDbCircle
6
CONTINUOUS
62
5
10
-107.259047
20
544.791272
40
0.312500
100
AcDbArc
50
147.154199
51
-49.462000
0
ARC
5
193
100
AcDbEntity
8
0
100
AcDbCircle
6
CONTINUOUS
62
5
10
-107.421585
20
544.653774
40
0.100000
100
AcDbArc
50
-179.999995
51
-89.999989
0
LINE
5
194
100
AcDbEntity
8
0
100
AcDbLine
6
CONTINUOUS
62
5
10
-107.521598
20
546.941272
11
-107.571547
21
546.941272
0
ARC
5
195
100
AcDbEntity
8
0
100
AcDbCircle
6
CONTINUOUS
62
5
10
-107.821547
20
548.616273
40
0.075000
100
AcDbArc
50
89.999999
51
-179.999995
0
ARC
5
196
100
AcDbEntity
8
0
100
AcDbCircle
6
CONTINUOUS
62
5
10
-107.259047
20
548.091274
40
0.312500
100
AcDbArc
50
49.465000
51
-147.153989
0
ARC
5
197
100
AcDbEntity
8
0
100
AcDbCircle
6
CONTINUOUS
62
5
10
-107.421585
20
548.228774
40
0.100000
100
AcDbArc
50
89.999999
51
-179.999995
0
LINE
5
198
100
AcDbEntity
8
1
100
AcDbLine
6
CONTINUOUS
62
5
10
-113.678620
20
546.930744
11
-113.766789
21
547.016165
0
LINE
5
199
100
AcDbEntity
8
1
100
AcDbLine
6
CONTINUOUS
62
5
10
-113.766788
20
547.016163
11
-113.709341
21
547.124653
0
LINE
5
19a
100
AcDbEntity
8
1
100
AcDbLine
6
CONTINUOUS
62
5
10
-113.721548
20
546.441275
11
-113.647823
21
546.539435
0
LINE
5
19b
100
AcDbEntity
8
1
100
AcDbLine
6
CONTINUOUS
62
5
10
-113.647830
20
546.539435
11
-113.726583
21
546.633610
0
LINE
5
19c
100
AcDbEntity
8
1
100
AcDbLine
6
CONTINUOUS
62
5
10
-113.658100
20
546.147055
11
-113.726581
21
546.248934
0
LINE
5
19d
100
AcDbEntity
8
1
100
AcDbLine
6
CONTINUOUS
62
5
10
-113.741674
20
546.057133
11
-113.658102
21
546.147053
0
LINE
5
19e
100
AcDbEntity
8
1
100
AcDbLine
6
CONTINUOUS
62
5
10
-113.726584
20
546.248938
11
-113.647823
21
546.343115
0
LINE
5
19f
100
AcDbEntity
8
1
100
AcDbLine
6
CONTINUOUS
62
5
10
-113.647830
20
546.343111
11
-113.721549
21
546.441273
0
LINE
5
1a0
100
AcDbEntity
8
1
100
AcDbLine
6
CONTINUOUS
62
5
10
-113.658100
20
546.735493
11
-113.741674
21
546.825413
0
LINE
5
1a1
100
AcDbEntity
8
1
100
AcDbLine
6
CONTINUOUS
62
5
10
-113.741679
20
546.825413
11
-113.678623
21
546.930744
0
LINE
5
1a2
100
AcDbEntity
8
1
100
AcDbLine
6
CONTINUOUS
62
5
10
-113.726583
20
546.633610
11
-113.658100
21
546.735493
0
LINE
5
1a3
100
AcDbEntity
8
1
100
AcDbLine
6
CONTINUOUS
62
5
10
-113.931995
20
545.006214
11
-113.965634
21
545.124273
0
LINE
5
1a4
100
AcDbEntity
8
1
100
AcDbLine
6
CONTINUOUS
62
5
10
-114.011844
20
544.826861
11
-114.039264
21
544.946520
0
LINE
5
1a5
100
AcDbEntity
8
1
100
AcDbLine
6
CONTINUOUS
62
5
10
-114.039267
20
544.946522
11
-113.931988
21
545.006216
0
LINE
5
1a6
100
AcDbEntity
8
1
100
AcDbLine
6
CONTINUOUS
62
5
10
-113.965633
20
545.124271
11
-113.861637
21
545.189503
0
LINE
5
1a7
100
AcDbEntity
8
1
100
AcDbLine
6
CONTINUOUS
62
5
10
-113.861637
20
545.189505
11
-113.901409
21
545.305637
0
LINE
5
1a8
100
AcDbEntity
8
1
100
AcDbLine
6
CONTINUOUS
62
5
10
-113.750158
20
545.565863
11
-113.801852
21
545.677204
0
LINE
5
1a9
100
AcDbEntity
8
1
100
AcDbLine
6
CONTINUOUS
62
5
10
-113.801853
20
545.677204
11
-113.709333
21
545.757895
0
LINE
5
1aa
100
AcDbEntity
8
1
100
AcDbLine
6
CONTINUOUS
62
5
10
-113.901411
20
545.305637
11
-113.800967
21
545.376209
0
LINE
5
1ab
100
AcDbEntity
8
1
100
AcDbLine
6
CONTINUOUS
62
5
10
-113.800965
20
545.376225
11
-113.846758
21
545.490116
0
LINE
5
1ac
100
AcDbEntity
8
1
100
AcDbLine
6
CONTINUOUS
62
5
10
-113.846768
20
545.490116
11
-113.750159
21
545.565861
0
LINE
5
1ad
100
AcDbEntity
8
1
100
AcDbLine
6
CONTINUOUS
62
5
10
-113.709340
20
547.124651
11
-113.801852
21
547.205341
0
LINE
5
1ae
100
AcDbEntity
8
1
100
AcDbLine
6
CONTINUOUS
62
5
10
-113.801851
20
547.205343
11
-113.750156
21
547.316702
0
LINE
5
1af
100
AcDbEntity
8
1
100
AcDbLine
6
CONTINUOUS
62
5
10
-114.039264
20
547.936026
11
-114.011844
21
548.055685
0
LINE
5
1b0
100
AcDbEntity
8
1
100
AcDbLine
6
CONTINUOUS
62
5
10
-113.750159
20
547.316685
11
-113.846767
21
547.392428
0
LINE
5
1b1
100
AcDbEntity
8
1
100
AcDbLine
6
CONTINUOUS
62
5
10
-113.931994
20
547.876331
11
-114.039266
21
547.936024
0
LINE
5
1b2
100
AcDbEntity
8
1
100
AcDbLine
6
CONTINUOUS
62
5
10
-113.965641
20
547.758274
11
-113.931994
21
547.876333
0
LINE
5
1b3
100
AcDbEntity
8
1
100
AcDbLine
6
CONTINUOUS
62
5
10
-113.800967
20
547.506323
11
-113.901417
21
547.576906
0
LINE
5
1b4
100
AcDbEntity
8
1
100
AcDbLine
6
CONTINUOUS
62
5
10
-113.861637
20
547.693043
11
-113.965641
21
547.758274
0
LINE
5
1b5
100
AcDbEntity
8
1
100
AcDbLine
6
CONTINUOUS
62
5
10
-113.901417
20
547.576908
11
-113.861637
21
547.693043
0
LINE
5
1b6
100
AcDbEntity
8
1
100
AcDbLine
6
CONTINUOUS
62
5
10
-113.846768
20
547.392429
11
-113.800968
21
547.506336
0
LINE
5
1b7
100
AcDbEntity
8
1
100
AcDbLine
6
CONTINUOUS
62
5
10
-115.546536
20
546.441263
11
-114.860982
21
545.761868
0
LINE
5
1b8
100
AcDbEntity
8
1
100
AcDbLine
6
CONTINUOUS
62
5
10
-119.569867
20
545.858929
11
-120.294316
21
545.664814
0
ARC
5
1b9
100
AcDbEntity
8
1
100
AcDbCircle
6
CONTINUOUS
62
5
10
-117.396535
20
546.441273
40
2.250000
100
AcDbArc
50
120.000002
51
-164.999997
0
LINE
5
1ba
100
AcDbEntity
8
1
100
AcDbLine
6
CONTINUOUS
62
5
10
-121.051366
20
546.057131
11
-121.114421
21
545.951801
0
LINE
5
1bb
100
AcDbEntity
8
1
100
AcDbLine
6
CONTINUOUS
62
5
10
-121.114421
20
545.951801
11
-121.026256
21
545.866383
0
LINE
5
1bc
100
AcDbEntity
8
1
100
AcDbLine
6
CONTINUOUS
62
5
10
-121.026248
20
545.866383
11
-121.083711
21
545.757893
0
LINE
5
1bd
100
AcDbEntity
8
1
100
AcDbLine
6
CONTINUOUS
62
5
10
-119.855565
20
543.710253
11
-119.831935
21
543.589773
0
LINE
5
1be
100
AcDbEntity
8
1
100
AcDbLine
6
CONTINUOUS
62
5
10
-119.831941
20
543.589769
11
-119.709262
21
543.585283
0
LINE
5
1bf
100
AcDbEntity
8
1
100
AcDbLine
6
CONTINUOUS
62
5
10
-119.679362
20
543.466223
11
-119.556623
21
543.468157
0
LINE
5
1c0
100
AcDbEntity
8
1
100
AcDbLine
6
CONTINUOUS
62
5
10
-119.709262
20
543.585301
11
-119.679360
21
543.466227
0
LINE
5
1c1
100
AcDbEntity
8
1
100
AcDbLine
6
CONTINUOUS
62
5
10
-120.248029
20
544.005863
11
-120.127568
21
543.982243
0
LINE
5
1c2
100
AcDbEntity
8
1
100
AcDbLine
6
CONTINUOUS
62
5
10
-120.252515
20
544.128542
11
-120.248029
21
544.005863
0
LINE
5
1c3
100
AcDbEntity
8
1
100
AcDbLine
6
CONTINUOUS
62
5
10
-120.371583
20
544.158440
11
-120.252515
21
544.128544
0
LINE
5
1c4
100
AcDbEntity
8
1
100
AcDbLine
6
CONTINUOUS
62
5
10
-120.369641
20
544.281191
11
-120.371577
21
544.158438
0
LINE
5
1c5
100
AcDbEntity
8
1
100
AcDbLine
6
CONTINUOUS
62
5
10
-120.486981
20
544.317265
11
-120.369641
21
544.281176
0
LINE
5
1c6
100
AcDbEntity
8
1
100
AcDbLine
6
CONTINUOUS
62
5
10
-120.478610
20
544.439745
11
-120.486974
21
544.317263
0
LINE
5
1c7
100
AcDbEntity
8
1
100
AcDbLine
6
CONTINUOUS
62
5
10
-120.127568
20
543.982245
11
-120.116658
21
543.859961
0
LINE
5
1c8
100
AcDbEntity
8
1
100
AcDbLine
6
CONTINUOUS
62
5
10
-119.995120
20
543.842684
11
-119.977834
21
543.721136
0
LINE
5
1c9
100
AcDbEntity
8
1
100
AcDbLine
6
CONTINUOUS
62
5
10
-120.116658
20
543.859959
11
-119.995118
21
543.842684
0
LINE
5
1ca
100
AcDbEntity
8
1
100
AcDbLine
6
CONTINUOUS
62
5
10
-119.977834
20
543.721136
11
-119.855565
21
543.710241
0
LINE
5
1cb
100
AcDbEntity
8
1
100
AcDbLine
6
CONTINUOUS
62
5
10
-120.670951
20
544.772877
11
-120.692067
21
544.651936
0
LINE
5
1cc
100
AcDbEntity
8
1
100
AcDbLine
6
CONTINUOUS
62
5
10
-120.781201
20
544.826862
11
-120.670949
21
544.772877
0
LINE
5
1cd
100
AcDbEntity
8
1
100
AcDbLine
6
CONTINUOUS
62
5
10
-120.579143
20
544.603794
11
-120.593907
21
544.481909
0
LINE
5
1ce
100
AcDbEntity
8
1
100
AcDbLine
6
CONTINUOUS
62
5
10
-120.692067
20
544.651936
11
-120.579152
21
544.603794
0
LINE
5
1cf
100
AcDbEntity
8
1
100
AcDbLine
6
CONTINUOUS
62
5
10
-120.593907
20
544.481907
11
-120.478618
21
544.439747
0
LINE
5
1d0
100
AcDbEntity
8
1
100
AcDbLine
6
CONTINUOUS
62
5
10
-120.753779
20
544.946537
11
-120.781199
21
544.826862
0
LINE
5
1d1
100
AcDbEntity
8
1
100
AcDbLine
6
CONTINUOUS
62
5
10
-120.827403
20
545.124287
11
-120.861049
21
545.006216
0
LINE
5
1d2
100
AcDbEntity
8
1
100
AcDbLine
6
CONTINUOUS
62
5
10
-120.861056
20
545.006214
11
-120.753781
21
544.946522
0
LINE
5
1d3
100
AcDbEntity
8
1
100
AcDbLine
6
CONTINUOUS
62
5
10
-120.931409
20
545.189505
11
-120.827413
21
545.124289
0
LINE
5
1d4
100
AcDbEntity
8
1
100
AcDbLine
6
CONTINUOUS
62
5
10
-120.891627
20
545.305653
11
-120.931409
21
545.189503
0
LINE
5
1d5
100
AcDbEntity
8
1
100
AcDbLine
6
CONTINUOUS
62
5
10
-121.083711
20
545.757891
11
-120.991193
21
545.677204
0
LINE
5
1d6
100
AcDbEntity
8
1
100
AcDbLine
6
CONTINUOUS
62
5
10
-120.991185
20
545.677204
11
-121.042895
21
545.565847
0
LINE
5
1d7
100
AcDbEntity
8
1
100
AcDbLine
6
CONTINUOUS
62
5
10
-120.992076
20
545.376209
11
-120.891633
21
545.305637
0
LINE
5
1d8
100
AcDbEntity
8
1
100
AcDbLine
6
CONTINUOUS
62
5
10
-120.946279
20
545.490131
11
-120.992078
21
545.376209
0
LINE
5
1d9
100
AcDbEntity
8
1
100
AcDbLine
6
CONTINUOUS
62
5
10
-121.042895
20
545.565846
11
-120.946277
21
545.490114
0
ARC
5
1da
100
AcDbEntity
8
1
100
AcDbCircle
6
CONTINUOUS
62
5
10
-117.396535
20
546.441273
40
3.000000
100
AcDbArc
50
-120.000002
51
-45.000001
0
LINE
5
1db
100
AcDbEntity
8
1
100
AcDbLine
6
CONTINUOUS
62
5
10
-115.805544
20
544.850277
11
-115.275211
21
544.319950
0
LINE
5
1dc
100
AcDbEntity
8
1
100
AcDbLine
6
CONTINUOUS
62
5
10
-115.394993
20
543.359165
11
-115.272510
21
543.350807
0
LINE
5
1dd
100
AcDbEntity
8
1
100
AcDbLine
6
CONTINUOUS
62
5
10
-115.437168
20
543.243870
11
-115.394985
21
543.359165
0
LINE
5
1de
100
AcDbEntity
8
1
100
AcDbLine
6
CONTINUOUS
62
5
10
-115.559040
20
543.258642
11
-115.437167
21
543.243872
0
ARC
5
1df
100
AcDbEntity
8
1
100
AcDbCircle
6
CONTINUOUS
62
5
10
-117.396535
20
546.441273
40
2.250000
100
AcDbArc
50
-120.000002
51
-45.000001
0
LINE
5
1e0
100
AcDbEntity
8
1
100
AcDbLine
6
CONTINUOUS
62
5
10
-117.396533
20
542.766270
11
-117.494693
21
542.692555
0
LINE
5
1e1
100
AcDbEntity
8
1
100
AcDbLine
6
CONTINUOUS
62
5
10
-117.298373
20
542.692555
11
-117.204196
21
542.771305
0
LINE
5
1e2
100
AcDbEntity
8
1
100
AcDbLine
6
CONTINUOUS
62
5
10
-117.204200
20
542.771307
11
-117.102315
21
542.702839
0
LINE
5
1e3
100
AcDbEntity
8
1
100
AcDbLine
6
CONTINUOUS
62
5
10
-117.102313
20
542.702839
11
-117.012393
21
542.786409
0
LINE
5
1e4
100
AcDbEntity
8
1
100
AcDbLine
6
CONTINUOUS
62
5
10
-117.396535
20
542.766268
11
-117.298375
21
542.692553
0
LINE
5
1e5
100
AcDbEntity
8
1
100
AcDbLine
6
CONTINUOUS
62
5
10
-116.907062
20
542.723360
11
-116.821637
21
542.811510
0
LINE
5
1e6
100
AcDbEntity
8
1
100
AcDbLine
6
CONTINUOUS
62
5
10
-117.012393
20
542.786411
11
-116.907062
21
542.723347
0
LINE
5
1e7
100
AcDbEntity
8
1
100
AcDbLine
6
CONTINUOUS
62
5
10
-116.713153
20
542.754063
11
-116.632457
21
542.846577
0
LINE
5
1e8
100
AcDbEntity
8
1
100
AcDbLine
6
CONTINUOUS
62
5
10
-116.821637
20
542.811527
11
-116.713153
21
542.754063
0
LINE
5
1e9
100
AcDbEntity
8
1
100
AcDbLine
6
CONTINUOUS
62
5
10
-118.896535
20
543.843191
11
-119.071538
21
543.540089
0
LINE
5
1ea
100
AcDbEntity
8
1
100
AcDbLine
6
CONTINUOUS
62
5
10
-119.252688
20
544.585116
11
-119.071538
21
543.540089
0
LINE
5
1eb
100
AcDbEntity
8
1
100
AcDbLine
6
CONTINUOUS
62
5
10
-117.690747
20
542.702869
11
-117.588861
21
542.771355
0
LINE
5
1ec
100
AcDbEntity
8
1
100
AcDbLine
6
CONTINUOUS
62
5
10
-117.494697
20
542.692555
11
-117.588870
21
542.771303
0
LINE
5
1ed
100
AcDbEntity
8
1
100
AcDbLine
6
CONTINUOUS
62
5
10
-117.780673
20
542.786457
11
-117.690745
21
542.702869
0
LINE
5
1ee
100
AcDbEntity
8
1
100
AcDbLine
6
CONTINUOUS
62
5
10
-117.885997
20
542.723393
11
-117.780673
21
542.786442
0
LINE
5
1ef
100
AcDbEntity
8
1
100
AcDbLine
6
CONTINUOUS
62
5
10
-117.971425
20
542.811558
11
-117.885999
21
542.723391
0
LINE
5
1f0
100
AcDbEntity
8
1
100
AcDbLine
6
CONTINUOUS
62
5
10
-118.079907
20
542.754114
11
-117.971425
21
542.811560
0
LINE
5
1f1
100
AcDbEntity
8
1
100
AcDbLine
6
CONTINUOUS
62
5
10
-119.064931
20
543.166857
11
-119.010932
21
543.056616
0
LINE
5
1f2
100
AcDbEntity
8
1
100
AcDbLine
6
CONTINUOUS
62
5
10
-119.010930
20
543.056614
11
-118.891271
21
543.084034
0
LINE
5
1f3
100
AcDbEntity
8
1
100
AcDbLine
6
CONTINUOUS
62
5
10
-118.891278
20
543.084036
11
-118.831578
21
542.976751
0
LINE
5
1f4
100
AcDbEntity
8
1
100
AcDbLine
6
CONTINUOUS
62
5
10
-118.831580
20
542.976749
11
-118.713521
21
543.010395
0
LINE
5
1f5
100
AcDbEntity
8
1
100
AcDbLine
6
CONTINUOUS
62
5
10
-118.713519
20
543.010410
11
-118.648290
21
542.906391
0
LINE
5
1f6
100
AcDbEntity
8
1
100
AcDbLine
6
CONTINUOUS
62
5
10
-118.648290
20
542.906393
11
-118.532155
21
542.946177
0
LINE
5
1f7
100
AcDbEntity
8
1
100
AcDbLine
6
CONTINUOUS
62
5
10
-118.532163
20
542.946188
11
-118.461576
21
542.845736
0
LINE
5
1f8
100
AcDbEntity
8
1
100
AcDbLine
6
CONTINUOUS
62
5
10
-118.461574
20
542.845736
11
-118.347682
21
542.891527
0
LINE
5
1f9
100
AcDbEntity
8
1
100
AcDbLine
6
CONTINUOUS
62
5
10
-118.271937
20
542.794924
11
-118.160602
21
542.846621
0
LINE
5
1fa
100
AcDbEntity
8
1
100
AcDbLine
6
CONTINUOUS
62
5
10
-118.347684
20
542.891543
11
-118.271939
21
542.794926
0
LINE
5
1fb
100
AcDbEntity
8
1
100
AcDbLine
6
CONTINUOUS
62
5
10
-118.160604
20
542.846623
11
-118.079907
21
542.754110
0
LINE
5
1fc
100
AcDbEntity
8
1
100
AcDbLine
6
CONTINUOUS
62
5
10
-119.398059
20
543.359194
11
-119.355886
21
543.243902
0
LINE
5
1fd
100
AcDbEntity
8
1
100
AcDbLine
6
CONTINUOUS
62
5
10
-119.520534
20
543.350819
11
-119.398059
21
543.359196
0
LINE
5
1fe
100
AcDbEntity
8
1
100
AcDbLine
6
CONTINUOUS
62
5
10
-119.556623
20
543.468174
11
-119.520536
21
543.350817
0
LINE
5
1ff
100
AcDbEntity
8
1
100
AcDbLine
6
CONTINUOUS
62
5
10
-119.355886
20
543.243898
11
-119.234014
21
543.258654
0
LINE
5
200
100
AcDbEntity
8
1
100
AcDbLine
6
CONTINUOUS
62
5
10
-119.234012
20
543.258675
11
-119.185855
21
543.145742
0
LINE
5
201
100
AcDbEntity
8
1
100
AcDbLine
6
CONTINUOUS
62
5
10
-119.185855
20
543.145742
11
-119.064929
21
543.166861
0
LINE
5
202
100
AcDbEntity
8
1
100
AcDbLine
6
CONTINUOUS
62
5
10
-118.321536
20
544.839123
11
-119.252688
21
544.585117
0
LINE
5
203
100
AcDbEntity
8
1
100
AcDbLine
6
CONTINUOUS
62
5
10
-118.321540
20
544.839123
11
-118.521535
21
544.492712
0
LINE
5
204
100
AcDbEntity
8
1
100
AcDbLine
6
CONTINUOUS
62
5
10
-115.961474
20
542.976734
11
-115.901774
21
543.083988
0
LINE
5
205
100
AcDbEntity
8
1
100
AcDbLine
6
CONTINUOUS
62
5
10
-116.079534
20
543.010365
11
-115.961475
21
542.976719
0
LINE
5
206
100
AcDbEntity
8
1
100
AcDbLine
6
CONTINUOUS
62
5
10
-115.901782
20
543.084007
11
-115.782115
21
543.056587
0
LINE
5
207
100
AcDbEntity
8
1
100
AcDbLine
6
CONTINUOUS
62
5
10
-115.782115
20
543.056587
11
-115.728122
21
543.166828
0
LINE
5
208
100
AcDbEntity
8
1
100
AcDbLine
6
CONTINUOUS
62
5
10
-116.144758
20
542.906380
11
-116.079535
21
543.010365
0
LINE
5
209
100
AcDbEntity
8
1
100
AcDbLine
6
CONTINUOUS
62
5
10
-116.260898
20
542.946142
11
-116.144757
21
542.906363
0
LINE
5
20a
100
AcDbEntity
8
1
100
AcDbLine
6
CONTINUOUS
62
5
10
-116.331475
20
542.845707
11
-116.260896
21
542.946140
0
LINE
5
20b
100
AcDbEntity
8
1
100
AcDbLine
6
CONTINUOUS
62
5
10
-116.445378
20
542.891504
11
-116.331477
21
542.845694
0
LINE
5
20c
100
AcDbEntity
8
1
100
AcDbLine
6
CONTINUOUS
62
5
10
-116.521115
20
542.794878
11
-116.445377
21
542.891502
0
LINE
5
20d
100
AcDbEntity
8
1
100
AcDbLine
6
CONTINUOUS
62
5
10
-116.632459
20
542.846577
11
-116.521115
21
542.794880
0
LINE
5
20e
100
AcDbEntity
8
1
100
AcDbLine
6
CONTINUOUS
62
5
10
-115.607191
20
543.145708
11
-115.559040
21
543.258625
0
LINE
5
20f
100
AcDbEntity
8
1
100
AcDbLine
6
CONTINUOUS
62
5
10
-115.728122
20
543.166828
11
-115.607191
21
543.145710
0
LINE
5
210
100
AcDbEntity
8
1
100
AcDbLine
6
CONTINUOUS
62
5
10
-114.937489
20
543.710224
11
-114.815205
21
543.721119
0
LINE
5
211
100
AcDbEntity
8
1
100
AcDbLine
6
CONTINUOUS
62
5
10
-114.961111
20
543.589760
11
-114.937481
21
543.710222
0
LINE
5
212
100
AcDbEntity
8
1
100
AcDbLine
6
CONTINUOUS
62
5
10
-115.083790
20
543.585272
11
-114.961110
21
543.589762
0
LINE
5
213
100
AcDbEntity
8
1
100
AcDbLine
6
CONTINUOUS
62
5
10
-115.272511
20
543.350807
11
-115.236424
21
543.468147
0
LINE
5
214
100
AcDbEntity
8
1
100
AcDbLine
6
CONTINUOUS
62
5
10
-115.236424
20
543.468145
11
-115.113682
21
543.466204
0
LINE
5
215
100
AcDbEntity
8
1
100
AcDbLine
6
CONTINUOUS
62
5
10
-115.113684
20
543.466206
11
-115.083784
21
543.585270
0
LINE
5
216
100
AcDbEntity
8
1
100
AcDbLine
6
CONTINUOUS
62
5
10
-120.252523
20
548.754003
11
-120.371593
21
548.724111
0
LINE
5
217
100
AcDbEntity
8
1
100
AcDbLine
6
CONTINUOUS
62
5
10
-120.248044
20
548.876680
11
-120.252523
21
548.754002
0
LINE
5
218
100
AcDbEntity
8
1
100
AcDbLine
6
CONTINUOUS
62
5
10
-120.371593
20
548.724109
11
-120.369649
21
548.601367
0
LINE
5
219
100
AcDbEntity
8
1
100
AcDbLine
6
CONTINUOUS
62
5
10
-120.593921
20
548.400623
11
-120.579148
21
548.278751
0
LINE
5
21a
100
AcDbEntity
8
1
100
AcDbLine
6
CONTINUOUS
62
5
10
-120.579150
20
548.278751
11
-120.692081
21
548.230595
0
LINE
5
21b
100
AcDbEntity
8
1
100
AcDbLine
6
CONTINUOUS
62
5
10
-120.369649
20
548.601370
11
-120.486987
21
548.565283
0
LINE
5
21c
100
AcDbEntity
8
1
100
AcDbLine
6
CONTINUOUS
62
5
10
-120.478618
20
548.442800
11
-120.593915
21
548.400623
0
LINE
5
21d
100
AcDbEntity
8
1
100
AcDbLine
6
CONTINUOUS
62
5
10
-120.486987
20
548.565281
11
-120.478623
21
548.442798
0
LINE
5
21e
100
AcDbEntity
8
1
100
AcDbLine
6
CONTINUOUS
62
5
10
-120.670947
20
548.109670
11
-120.781209
21
548.055668
0
LINE
5
21f
100
AcDbEntity
8
1
100
AcDbLine
6
CONTINUOUS
62
5
10
-120.692081
20
548.230594
11
-120.670960
21
548.109668
0
LINE
5
220
100
AcDbEntity
8
1
100
AcDbLine
6
CONTINUOUS
62
5
10
-120.781207
20
548.055668
11
-120.753787
21
547.936009
0
LINE
5
221
100
AcDbEntity
8
1
100
AcDbLine
6
CONTINUOUS
62
5
10
-121.026248
20
547.016163
11
-121.114429
21
546.930729
0
LINE
5
222
100
AcDbEntity
8
1
100
AcDbLine
6
CONTINUOUS
62
5
10
-121.083713
20
547.124638
11
-121.026256
21
547.016163
0
LINE
5
223
100
AcDbEntity
8
1
100
AcDbLine
6
CONTINUOUS
62
5
10
-121.145221
20
546.539433
11
-121.071506
21
546.441273
0
LINE
5
224
100
AcDbEntity
8
1
100
AcDbLine
6
CONTINUOUS
62
5
10
-121.066455
20
546.633612
11
-121.145223
21
546.539435
0
LINE
5
225
100
AcDbEntity
8
1
100
AcDbLine
6
CONTINUOUS
62
5
10
-121.134944
20
546.147051
11
-121.051364
21
546.057133
0
LINE
5
226
100
AcDbEntity
8
1
100
AcDbLine
6
CONTINUOUS
62
5
10
-121.066455
20
546.248936
11
-121.134946
21
546.147053
0
LINE
5
227
100
AcDbEntity
8
1
100
AcDbLine
6
CONTINUOUS
62
5
10
-121.145223
20
546.343100
11
-121.066463
21
546.248936
0
LINE
5
228
100
AcDbEntity
8
1
100
AcDbLine
6
CONTINUOUS
62
5
10
-121.071498
20
546.441273
11
-121.145221
21
546.343098
0
LINE
5
229
100
AcDbEntity
8
1
100
AcDbLine
6
CONTINUOUS
62
5
10
-121.114429
20
546.930729
11
-121.051372
21
546.825415
0
LINE
5
22a
100
AcDbEntity
8
1
100
AcDbLine
6
CONTINUOUS
62
5
10
-121.051364
20
546.825413
11
-121.134944
21
546.735478
0
LINE
5
22b
100
AcDbEntity
8
1
100
AcDbLine
6
CONTINUOUS
62
5
10
-121.134954
20
546.735478
11
-121.066470
21
546.633595
0
LINE
5
22c
100
AcDbEntity
8
1
100
AcDbLine
6
CONTINUOUS
62
5
10
-120.991193
20
547.205343
11
-121.083713
21
547.124640
0
LINE
5
22d
100
AcDbEntity
8
1
100
AcDbLine
6
CONTINUOUS
62
5
10
-121.042893
20
547.316685
11
-120.991200
21
547.205343
0
LINE
5
22e
100
AcDbEntity
8
1
100
AcDbLine
6
CONTINUOUS
62
5
10
-120.946281
20
547.392429
11
-121.042897
21
547.316685
0
LINE
5
22f
100
AcDbEntity
8
1
100
AcDbLine
6
CONTINUOUS
62
5
10
-120.861058
20
547.876314
11
-120.827413
21
547.758257
0
LINE
5
230
100
AcDbEntity
8
1
100
AcDbLine
6
CONTINUOUS
62
5
10
-120.753781
20
547.936008
11
-120.861058
21
547.876316
0
LINE
5
231
100
AcDbEntity
8
1
100
AcDbLine
6
CONTINUOUS
62
5
10
-120.891633
20
547.576893
11
-120.992085
21
547.506325
0
LINE
5
232
100
AcDbEntity
8
1
100
AcDbLine
6
CONTINUOUS
62
5
10
-120.827411
20
547.758259
11
-120.931417
21
547.693028
0
LINE
5
233
100
AcDbEntity
8
1
100
AcDbLine
6
CONTINUOUS
62
5
10
-120.931417
20
547.693028
11
-120.891633
21
547.576891
0
LINE
5
234
100
AcDbEntity
8
1
100
AcDbLine
6
CONTINUOUS
62
5
10
-120.992085
20
547.506325
11
-120.946286
21
547.392416
0
LINE
5
235
100
AcDbEntity
8
1
100
AcDbLine
6
CONTINUOUS
62
5
10
-118.321536
20
548.043414
11
-118.521533
21
548.389828
0
LINE
5
236
100
AcDbEntity
8
1
100
AcDbLine
6
CONTINUOUS
62
5
10
-115.546535
20
546.441265
11
-115.146535
21
546.441273
0
ARC
5
237
100
AcDbEntity
8
1
100
AcDbCircle
6
CONTINUOUS
62
5
10
-117.396535
20
546.441273
40
2.250000
100
AcDbArc
50
0.000000
51
74.999998
0
LINE
5
238
100
AcDbEntity
8
1
100
AcDbLine
6
CONTINUOUS
62
5
10
-114.815205
20
543.721119
11
-114.797917
21
543.842655
0
LINE
5
239
100
AcDbEntity
8
1
100
AcDbLine
6
CONTINUOUS
62
5
10
-114.797925
20
543.842655
11
-114.676379
21
543.859947
0
LINE
5
23a
100
AcDbEntity
8
1
100
AcDbLine
6
CONTINUOUS
62
5
10
-114.676379
20
543.859945
11
-114.665484
21
543.982227
0
LINE
5
23b
100
AcDbEntity
8
1
100
AcDbLine
6
CONTINUOUS
62
5
10
-114.860982
20
545.761870
11
-114.046536
21
546.441275
0
LINE
5
23c
100
AcDbEntity
8
1
100
AcDbLine
6
CONTINUOUS
62
5
10
-114.665485
20
543.982229
11
-114.545019
21
544.005850
0
LINE
5
23d
100
AcDbEntity
8
1
100
AcDbLine
6
CONTINUOUS
62
5
10
-114.545017
20
544.005850
11
-114.540532
21
544.128529
0
LINE
5
23e
100
AcDbEntity
8
1
100
AcDbLine
6
CONTINUOUS
62
5
10
-114.540533
20
544.128529
11
-114.421459
21
544.158423
0
LINE
5
23f
100
AcDbEntity
8
1
100
AcDbLine
6
CONTINUOUS
62
5
10
-114.421467
20
544.158421
11
-114.423405
21
544.281162
0
LINE
5
240
100
AcDbEntity
8
1
100
AcDbLine
6
CONTINUOUS
62
5
10
-114.423404
20
544.281160
11
-114.306064
21
544.317247
0
LINE
5
241
100
AcDbEntity
8
1
100
AcDbLine
6
CONTINUOUS
62
5
10
-114.306066
20
544.317249
11
-114.314428
21
544.439734
0
LINE
5
242
100
AcDbEntity
8
1
100
AcDbLine
6
CONTINUOUS
62
5
10
-114.100973
20
544.651936
11
-114.122090
21
544.772862
0
LINE
5
243
100
AcDbEntity
8
1
100
AcDbLine
6
CONTINUOUS
62
5
10
-114.122089
20
544.772860
11
-114.011845
21
544.826861
0
LINE
5
244
100
AcDbEntity
8
1
100
AcDbLine
6
CONTINUOUS
62
5
10
-114.199141
20
544.481907
11
-114.213896
21
544.603777
0
LINE
5
245
100
AcDbEntity
8
1
100
AcDbLine
6
CONTINUOUS
62
5
10
-114.213903
20
544.603779
11
-114.100973
21
544.651936
0
LINE
5
246
100
AcDbEntity
8
1
100
AcDbLine
6
CONTINUOUS
62
5
10
-114.314428
20
544.439732
11
-114.199142
21
544.481907
0
LINE
5
247
100
AcDbEntity
8
1
100
AcDbLine
6
CONTINUOUS
62
5
10
-114.421468
20
548.724123
11
-114.540534
21
548.754016
0
LINE
5
248
100
AcDbEntity
8
1
100
AcDbLine
6
CONTINUOUS
62
5
10
-114.423406
20
548.601367
11
-114.421468
21
548.724124
0
LINE
5
249
100
AcDbEntity
8
1
100
AcDbLine
6
CONTINUOUS
62
5
10
-114.213903
20
548.278765
11
-114.199147
21
548.400640
0
LINE
5
24a
100
AcDbEntity
8
1
100
AcDbLine
6
CONTINUOUS
62
5
10
-114.100980
20
548.230611
11
-114.213903
21
548.278769
0
LINE
5
24b
100
AcDbEntity
8
1
100
AcDbLine
6
CONTINUOUS
62
5
10
-114.314435
20
548.442816
11
-114.306072
21
548.565295
0
LINE
5
24c
100
AcDbEntity
8
1
100
AcDbLine
6
CONTINUOUS
62
5
10
-114.199148
20
548.400636
11
-114.314429
21
548.442812
0
LINE
5
24d
100
AcDbEntity
8
1
100
AcDbLine
6
CONTINUOUS
62
5
10
-114.306072
20
548.565295
11
-114.423406
21
548.601382
0
LINE
5
24e
100
AcDbEntity
8
1
100
AcDbLine
6
CONTINUOUS
62
5
10
-114.011852
20
548.055684
11
-114.122096
21
548.109684
0
LINE
5
24f
100
AcDbEntity
8
1
100
AcDbLine
6
CONTINUOUS
62
5
10
-114.122097
20
548.109685
11
-114.100981
21
548.230608
0
LINE
5
250
100
AcDbEntity
8
1
100
AcDbLine
6
CONTINUOUS
62
5
10
-114.540533
20
548.754018
11
-114.545025
21
548.876697
0
LINE
5
251
100
AcDbEntity
8
1
100
AcDbLine
6
CONTINUOUS
62
5
10
-114.396535
20
546.441273
11
-114.046535
21
546.441273
0
CIRCLE
5
252
100
AcDbEntity
8
1
100
AcDbCircle
6
CONTINUOUS
62
5
10
-110.521535
20
526.441273
40
0.787500
0
LINE
5
253
100
AcDbEntity
8
1
100
AcDbLine
6
CONTINUOUS
62
5
10
-109.964688
20
526.998120
11
-111.078381
21
525.884426
0
LINE
5
254
100
AcDbEntity
8
1
100
AcDbLine
6
CONTINUOUS
62
5
10
-110.203337
20
526.123075
11
-110.839733
21
526.759471
0
CIRCLE
5
255
100
AcDbEntity
8
1
100
AcDbCircle
6
CONTINUOUS
62
5
10
-120.646535
20
528.941273
40
0.787500
0
LINE
5
256
100
AcDbEntity
8
1
100
AcDbLine
6
CONTINUOUS
62
5
10
-120.089688
20
529.498120
11
-121.203381
21
528.384426
0
LINE
5
257
100
AcDbEntity
8
1
100
AcDbLine
6
CONTINUOUS
62
5
10
-120.328337
20
528.623075
11
-120.964733
21
529.259471
0
LINE
5
258
100
AcDbEntity
8
0
100
AcDbLine
6
CONTINUOUS
62
5
10
-107.896535
20
534.191272
11
-107.896535
21
538.691273
0
LINE
5
259
100
AcDbEntity
8
0
100
AcDbLine
6
CONTINUOUS
62
5
10
-107.821536
20
534.253772
11
-107.821536
21
538.628773
0
CIRCLE
5
25a
100
AcDbEntity
8
1
100
AcDbCircle
6
CONTINUOUS
62
5
10
-129.521535
20
526.591273
40
0.437500
0
CIRCLE
5
25b
100
AcDbEntity
8
1
100
AcDbCircle
6
CONTINUOUS
62
5
10
-129.521535
20
526.591273
40
0.625000
0
POLYLINE
5
25c
100
AcDbEntity
8
1
6
CONTINUOUS
62
5
100
AcDb2dPolyline
66
1
10
0.0
20
0.0
30
0.0
70
1
0
VERTEX
5
25d
100
AcDbEntity
8
1
100
AcDbVertex
100
AcDb2dVertex
62
5
10
-128.584035
20
525.591273
0
VERTEX
5
25e
100
AcDbEntity
8
1
100
AcDbVertex
100
AcDb2dVertex
62
5
10
-128.584035
20
527.441273
0
VERTEX
5
25f
100
AcDbEntity
8
1
100
AcDbVertex
100
AcDb2dVertex
62
5
10
-130.459035
20
527.441273
0
VERTEX
5
260
100
AcDbEntity
8
1
100
AcDbVertex
100
AcDb2dVertex
62
5
10
-130.459035
20
525.591273
0
SEQEND
5
261
100
AcDbEntity
8
1
0
POLYLINE
5
262
100
AcDbEntity
8
1
6
CONTINUOUS
62
5
100
AcDb2dPolyline
66
1
10
0.0
20
0.0
30
0.0
70
0
0
VERTEX
5
263
100
AcDbEntity
8
1
100
AcDbVertex
100
AcDb2dVertex
62
5
10
-127.599660
20
530.566273
0
VERTEX
5
264
100
AcDbEntity
8
1
100
AcDbVertex
100
AcDb2dVertex
62
5
10
-127.990285
20
530.566273
0
VERTEX
5
265
100
AcDbEntity
8
1
100
AcDbVertex
100
AcDb2dVertex
62
5
10
-127.990285
20
529.628773
0
VERTEX
5
266
100
AcDbEntity
8
1
100
AcDbVertex
100
AcDb2dVertex
62
5
10
-127.560597
20
529.628773
0
SEQEND
5
267
100
AcDbEntity
8
1
0
LINE
5
268
100
AcDbEntity
8
1
100
AcDbLine
6
CONTINUOUS
62
5
10
-127.990285
20
530.097523
11
-127.638722
21
530.097523
0
LINE
5
269
100
AcDbEntity
8
1
100
AcDbLine
6
CONTINUOUS
62
5
10
-127.365285
20
530.566273
11
-126.974660
21
530.566273
0
LINE
5
26a
100
AcDbEntity
8
1
100
AcDbLine
6
CONTINUOUS
62
5
10
-127.169972
20
530.566273
11
-127.169972
21
529.628773
0
LINE
5
26b
100
AcDbEntity
8
1
100
AcDbLine
6
CONTINUOUS
62
5
10
-126.740285
20
530.566273
11
-126.740285
21
529.628773
0
LINE
5
26c
100
AcDbEntity
8
1
100
AcDbLine
6
CONTINUOUS
62
5
10
-126.740285
20
530.097523
11
-126.388722
21
530.097523
0
LINE
5
26d
100
AcDbEntity
8
1
100
AcDbLine
6
CONTINUOUS
62
5
10
-126.388722
20
530.566273
11
-126.388722
21
529.628773
0
POLYLINE
5
26e
100
AcDbEntity
8
1
6
CONTINUOUS
62
5
100
AcDb2dPolyline
66
1
10
0.0
20
0.0
30
0.0
70
0
0
VERTEX
5
26f
100
AcDbEntity
8
1
100
AcDbVertex
100
AcDb2dVertex
62
5
10
-125.724660
20
530.566273
0
VERTEX
5
270
100
AcDbEntity
8
1
100
AcDbVertex
100
AcDb2dVertex
62
5
10
-126.115285
20
530.566273
0
VERTEX
5
271
100
AcDbEntity
8
1
100
AcDbVertex
100
AcDb2dVertex
62
5
10
-126.115285
20
529.628773
0
VERTEX
5
272
100
AcDbEntity
8
1
100
AcDbVertex
100
AcDb2dVertex
62
5
10
-125.685597
20
529.628773
0
SEQEND
5
273
100
AcDbEntity
8
1
0
LINE
5
274
100
AcDbEntity
8
1
100
AcDbLine
6
CONTINUOUS
62
5
10
-126.115285
20
530.097523
11
-125.763722
21
530.097523
0
LINE
5
275
100
AcDbEntity
8
1
100
AcDbLine
6
CONTINUOUS
62
5
10
-125.490285
20
530.566273
11
-125.490285
21
529.628773
0
POLYLINE
5
276
100
AcDbEntity
8
1
6
CONTINUOUS
62
5
100
AcDb2dPolyline
66
1
10
0.0
20
0.0
30
0.0
70
0
0
VERTEX
5
277
100
AcDbEntity
8
1
100
AcDbVertex
100
AcDb2dVertex
62
5
10
-125.490285
20
530.566273
0
VERTEX
5
278
100
AcDbEntity
8
1
100
AcDbVertex
100
AcDb2dVertex
62
5
10
-125.334035
20
530.566273
0
VERTEX
5
279
100
AcDbEntity
8
1
100
AcDbVertex
100
AcDb2dVertex
62
5
10
-125.216847
20
530.527210
0
VERTEX
5
27a
100
AcDbEntity
8
1
100
AcDbVertex
100
AcDb2dVertex
62
5
10
-125.177785
20
530.488148
0
VERTEX
5
27b
100
AcDbEntity
8
1
100
AcDbVertex
100
AcDb2dVertex
62
5
10
-125.138722
20
530.370960
0
VERTEX
5
27c
100
AcDbEntity
8
1
100
AcDbVertex
100
AcDb2dVertex
62
5
10
-125.138722
20
530.253773
0
VERTEX
5
27d
100
AcDbEntity
8
1
100
AcDbVertex
100
AcDb2dVertex
62
5
10
-125.177785
20
530.175648
0
VERTEX
5
27e
100
AcDbEntity
8
1
100
AcDbVertex
100
AcDb2dVertex
62
5
10
-125.294972
20
530.097523
0
VERTEX
5
27f
100
AcDbEntity
8
1
100
AcDbVertex
100
AcDb2dVertex
62
5
10
-125.490285
20
530.097523
0
SEQEND
5
280
100
AcDbEntity
8
1
0
POLYLINE
5
281
100
AcDbEntity
8
1
6
CONTINUOUS
62
5
100
AcDb2dPolyline
66
1
10
0.0
20
0.0
30
0.0
70
0
0
VERTEX
5
282
100
AcDbEntity
8
1
100
AcDbVertex
100
AcDb2dVertex
62
5
10
-125.294972
20
530.097523
0
VERTEX
5
283
100
AcDbEntity
8
1
100
AcDbVertex
100
AcDb2dVertex
62
5
10
-125.216847
20
530.058460
0
VERTEX
5
284
100
AcDbEntity
8
1
100
AcDbVertex
100
AcDb2dVertex
62
5
10
-125.177785
20
529.980335
0
VERTEX
5
285
100
AcDbEntity
8
1
100
AcDbVertex
100
AcDb2dVertex
62
5
10
-125.177785
20
529.706898
0
VERTEX
5
286
100
AcDbEntity
8
1
100
AcDbVertex
100
AcDb2dVertex
62
5
10
-125.138722
20
529.628773
0
VERTEX
5
287
100
AcDbEntity
8
1
100
AcDbVertex
100
AcDb2dVertex
62
5
10
-125.099660
20
529.628773
0
VERTEX
5
288
100
AcDbEntity
8
1
100
AcDbVertex
100
AcDb2dVertex
62
5
10
-125.060597
20
529.706898
0
SEQEND
5
289
100
AcDbEntity
8
1
0
POLYLINE
5
28a
100
AcDbEntity
8
1
6
CONTINUOUS
62
5
100
AcDb2dPolyline
66
1
10
0.0
20
0.0
30
0.0
70
0
0
VERTEX
5
28b
100
AcDbEntity
8
1
100
AcDbVertex
100
AcDb2dVertex
62
5
10
-124.865285
20
529.628773
0
VERTEX
5
28c
100
AcDbEntity
8
1
100
AcDbVertex
100
AcDb2dVertex
62
5
10
-124.865285
20
530.566273
0
VERTEX
5
28d
100
AcDbEntity
8
1
100
AcDbVertex
100
AcDb2dVertex
62
5
10
-124.474660
20
529.628773
0
VERTEX
5
28e
100
AcDbEntity
8
1
100
AcDbVertex
100
AcDb2dVertex
62
5
10
-124.474660
20
530.566273
0
SEQEND
5
28f
100
AcDbEntity
8
1
0
POLYLINE
5
290
100
AcDbEntity
8
1
6
CONTINUOUS
62
5
100
AcDb2dPolyline
66
1
10
0.0
20
0.0
30
0.0
70
0
0
VERTEX
5
291
100
AcDbEntity
8
1
100
AcDbVertex
100
AcDb2dVertex
62
5
10
-123.849660
20
530.566273
0
VERTEX
5
292
100
AcDbEntity
8
1
100
AcDbVertex
100
AcDb2dVertex
62
5
10
-124.240285
20
530.566273
0
VERTEX
5
293
100
AcDbEntity
8
1
100
AcDbVertex
100
AcDb2dVertex
62
5
10
-124.240285
20
529.628773
0
VERTEX
5
294
100
AcDbEntity
8
1
100
AcDbVertex
100
AcDb2dVertex
62
5
10
-123.810597
20
529.628773
0
SEQEND
5
295
100
AcDbEntity
8
1
0
LINE
5
296
100
AcDbEntity
8
1
100
AcDbLine
6
CONTINUOUS
62
5
10
-124.240285
20
530.097523
11
-123.888722
21
530.097523
0
LINE
5
297
100
AcDbEntity
8
1
100
AcDbLine
6
CONTINUOUS
62
5
10
-123.615285
20
530.566273
11
-123.224660
21
530.566273
0
LINE
5
298
100
AcDbEntity
8
1
100
AcDbLine
6
CONTINUOUS
62
5
10
-123.419972
20
530.566273
11
-123.419972
21
529.628773
0
POLYLINE
5
299
100
AcDbEntity
8
1
6
CONTINUOUS
62
5
100
AcDb2dPolyline
66
1
10
0.0
20
0.0
30
0.0
70
1
0
VERTEX
5
29a
100
AcDbEntity
8
1
100
AcDbVertex
100
AcDb2dVertex
62
5
10
-126.984035
20
525.591273
0
VERTEX
5
29b
100
AcDbEntity
8
1
100
AcDbVertex
100
AcDb2dVertex
62
5
10
-126.984035
20
528.016273
0
VERTEX
5
29c
100
AcDbEntity
8
1
100
AcDbVertex
100
AcDb2dVertex
62
5
10
-128.059035
20
528.016273
0
VERTEX
5
29d
100
AcDbEntity
8
1
100
AcDbVertex
100
AcDb2dVertex
62
5
10
-128.059035
20
525.591273
0
SEQEND
5
29e
100
AcDbEntity
8
1
0
CIRCLE
5
29f
100
AcDbEntity
8
1
100
AcDbCircle
6
CONTINUOUS
62
5
10
-127.521535
20
527.496273
40
0.500000
0
CIRCLE
5
2a0
100
AcDbEntity
8
1
100
AcDbCircle
6
CONTINUOUS
62
5
10
-127.521535
20
526.226273
40
0.500000
0
CIRCLE
5
2a1
100
AcDbEntity
8
1
100
AcDbCircle
6
CONTINUOUS
62
5
10
-127.521535
20
526.226273
40
0.375000
0
POLYLINE
5
2a2
100
AcDbEntity
8
1
6
CONTINUOUS
62
5
100
AcDb2dPolyline
66
1
10
0.0
20
0.0
30
0.0
70
1
0
VERTEX
5
2a3
100
AcDbEntity
8
1
100
AcDbVertex
100
AcDb2dVertex
62
5
10
-125.334035
20
526.186273
0
VERTEX
5
2a4
100
AcDbEntity
8
1
100
AcDbVertex
100
AcDb2dVertex
62
5
10
-125.334035
20
526.686273
0
VERTEX
5
2a5
100
AcDbEntity
8
1
100
AcDbVertex
100
AcDb2dVertex
62
5
10
-125.996535
20
526.686273
0
VERTEX
5
2a6
100
AcDbEntity
8
1
100
AcDbVertex
100
AcDb2dVertex
62
5
10
-125.996535
20
526.186273
0
SEQEND
5
2a7
100
AcDbEntity
8
1
0
CIRCLE
5
2a8
100
AcDbEntity
8
1
100
AcDbCircle
6
CONTINUOUS
62
5
10
-127.521535
20
527.496273
40
0.375000
0
POLYLINE
5
2a9
100
AcDbEntity
8
1
6
CONTINUOUS
62
5
100
AcDb2dPolyline
66
1
10
0.0
20
0.0
30
0.0
70
0
0
VERTEX
5
2aa
100
AcDbEntity
8
1
100
AcDbVertex
100
AcDb2dVertex
62
5
10
-123.198944
20
528.966273
0
VERTEX
5
2ab
100
AcDbEntity
8
1
100
AcDbVertex
100
AcDb2dVertex
62
5
10
-123.198944
20
529.166273
0
VERTEX
5
2ac
100
AcDbEntity
8
1
100
AcDbVertex
100
AcDb2dVertex
62
5
10
-123.744126
20
529.166273
0
VERTEX
5
2ad
100
AcDbEntity
8
1
100
AcDbVertex
100
AcDb2dVertex
62
5
10
-123.744126
20
528.966273
0
SEQEND
5
2ae
100
AcDbEntity
8
1
0
POLYLINE
5
2af
100
AcDbEntity
8
1
6
CONTINUOUS
62
5
100
AcDb2dPolyline
66
1
10
0.0
20
0.0
30
0.0
70
0
0
VERTEX
5
2b0
100
AcDbEntity
8
1
100
AcDbVertex
100
AcDb2dVertex
62
5
10
-125.794126
20
528.966273
0
VERTEX
5
2b1
100
AcDbEntity
8
1
100
AcDbVertex
100
AcDb2dVertex
62
5
10
-125.794126
20
529.166273
0
VERTEX
5
2b2
100
AcDbEntity
8
1
100
AcDbVertex
100
AcDb2dVertex
62
5
10
-125.248944
20
529.166273
0
VERTEX
5
2b3
100
AcDbEntity
8
1
100
AcDbVertex
100
AcDb2dVertex
62
5
10
-125.248944
20
528.966273
0
SEQEND
5
2b4
100
AcDbEntity
8
1
0
POLYLINE
5
2b5
100
AcDbEntity
8
1
6
CONTINUOUS
62
5
100
AcDb2dPolyline
66
1
10
0.0
20
0.0
30
0.0
70
0
0
VERTEX
5
2b6
100
AcDbEntity
8
1
100
AcDbVertex
100
AcDb2dVertex
62
5
10
-127.240285
20
524.976273
0
VERTEX
5
2b7
100
AcDbEntity
8
1
100
AcDbVertex
100
AcDb2dVertex
62
5
10
-127.240285
20
525.538773
0
VERTEX
5
2b8
100
AcDbEntity
8
1
100
AcDbVertex
100
AcDb2dVertex
62
5
10
-127.005910
20
524.976273
0
VERTEX
5
2b9
100
AcDbEntity
8
1
100
AcDbVertex
100
AcDb2dVertex
62
5
10
-127.005910
20
525.538773
0
SEQEND
5
2ba
100
AcDbEntity
8
1
0
POLYLINE
5
2bb
100
AcDbEntity
8
1
6
CONTINUOUS
62
5
100
AcDb2dPolyline
66
1
10
0.0
20
0.0
30
0.0
70
0
0
VERTEX
5
2bc
100
AcDbEntity
8
1
100
AcDbVertex
100
AcDb2dVertex
62
5
10
-127.615285
20
525.538773
0
VERTEX
5
2bd
100
AcDbEntity
8
1
100
AcDbVertex
100
AcDb2dVertex
62
5
10
-127.615285
20
525.093460
0
VERTEX
5
2be
100
AcDbEntity
8
1
100
AcDbVertex
100
AcDb2dVertex
62
5
10
-127.591847
20
525.023148
0
VERTEX
5
2bf
100
AcDbEntity
8
1
100
AcDbVertex
100
AcDb2dVertex
62
5
10
-127.568410
20
524.999710
0
VERTEX
5
2c0
100
AcDbEntity
8
1
100
AcDbVertex
100
AcDb2dVertex
62
5
10
-127.521535
20
524.976273
0
VERTEX
5
2c1
100
AcDbEntity
8
1
100
AcDbVertex
100
AcDb2dVertex
62
5
10
-127.474660
20
524.976273
0
VERTEX
5
2c2
100
AcDbEntity
8
1
100
AcDbVertex
100
AcDb2dVertex
62
5
10
-127.427785
20
524.999710
0
VERTEX
5
2c3
100
AcDbEntity
8
1
100
AcDbVertex
100
AcDb2dVertex
62
5
10
-127.404347
20
525.023148
0
VERTEX
5
2c4
100
AcDbEntity
8
1
100
AcDbVertex
100
AcDb2dVertex
62
5
10
-127.380910
20
525.093460
0
VERTEX
5
2c5
100
AcDbEntity
8
1
100
AcDbVertex
100
AcDb2dVertex
62
5
10
-127.380910
20
525.538773
0
SEQEND
5
2c6
100
AcDbEntity
8
1
0
LINE
5
2c7
100
AcDbEntity
8
1
100
AcDbLine
6
CONTINUOUS
62
5
10
-127.990285
20
525.538773
11
-127.990285
21
524.976273
0
POLYLINE
5
2c8
100
AcDbEntity
8
1
6
CONTINUOUS
62
5
100
AcDb2dPolyline
66
1
10
0.0
20
0.0
30
0.0
70
0
0
VERTEX
5
2c9
100
AcDbEntity
8
1
100
AcDbVertex
100
AcDb2dVertex
62
5
10
-127.990285
20
525.538773
0
VERTEX
5
2ca
100
AcDbEntity
8
1
100
AcDbVertex
100
AcDb2dVertex
62
5
10
-127.896535
20
525.538773
0
VERTEX
5
2cb
100
AcDbEntity
8
1
100
AcDbVertex
100
AcDb2dVertex
62
5
10
-127.826222
20
525.515335
0
VERTEX
5
2cc
100
AcDbEntity
8
1
100
AcDbVertex
100
AcDb2dVertex
62
5
10
-127.802785
20
525.491898
0
VERTEX
5
2cd
100
AcDbEntity
8
1
100
AcDbVertex
100
AcDb2dVertex
62
5
10
-127.779347
20
525.421585
0
VERTEX
5
2ce
100
AcDbEntity
8
1
100
AcDbVertex
100
AcDb2dVertex
62
5
10
-127.779347
20
525.351273
0
VERTEX
5
2cf
100
AcDbEntity
8
1
100
AcDbVertex
100
AcDb2dVertex
62
5
10
-127.802785
20
525.304398
0
VERTEX
5
2d0
100
AcDbEntity
8
1
100
AcDbVertex
100
AcDb2dVertex
62
5
10
-127.873097
20
525.257523
0
VERTEX
5
2d1
100
AcDbEntity
8
1
100
AcDbVertex
100
AcDb2dVertex
62
5
10
-127.990285
20
525.257523
0
SEQEND
5
2d2
100
AcDbEntity
8
1
0
POLYLINE
5
2d3
100
AcDbEntity
8
1
6
CONTINUOUS
62
5
100
AcDb2dPolyline
66
1
10
0.0
20
0.0
30
0.0
70
0
0
VERTEX
5
2d4
100
AcDbEntity
8
1
100
AcDbVertex
100
AcDb2dVertex
62
5
10
-127.873097
20
525.257523
0
VERTEX
5
2d5
100
AcDbEntity
8
1
100
AcDbVertex
100
AcDb2dVertex
62
5
10
-127.826222
20
525.234085
0
VERTEX
5
2d6
100
AcDbEntity
8
1
100
AcDbVertex
100
AcDb2dVertex
62
5
10
-127.802785
20
525.187210
0
VERTEX
5
2d7
100
AcDbEntity
8
1
100
AcDbVertex
100
AcDb2dVertex
62
5
10
-127.802785
20
525.023148
0
VERTEX
5
2d8
100
AcDbEntity
8
1
100
AcDbVertex
100
AcDb2dVertex
62
5
10
-127.779347
20
524.976273
0
VERTEX
5
2d9
100
AcDbEntity
8
1
100
AcDbVertex
100
AcDb2dVertex
62
5
10
-127.755910
20
524.976273
0
VERTEX
5
2da
100
AcDbEntity
8
1
100
AcDbVertex
100
AcDb2dVertex
62
5
10
-127.732472
20
525.023148
0
SEQEND
5
2db
100
AcDbEntity
8
1
0
POLYLINE
5
2dc
100
AcDbEntity
8
1
6
CONTINUOUS
62
5
100
AcDb2dPolyline
66
1
10
0.0
20
0.0
30
0.0
70
0
0
VERTEX
5
2dd
100
AcDbEntity
8
1
100
AcDbVertex
100
AcDb2dVertex
62
5
10
-127.240285
20
528.203773
0
VERTEX
5
2de
100
AcDbEntity
8
1
100
AcDbVertex
100
AcDb2dVertex
62
5
10
-127.240285
20
528.766273
0
VERTEX
5
2df
100
AcDbEntity
8
1
100
AcDbVertex
100
AcDb2dVertex
62
5
10
-127.123097
20
528.203773
0
VERTEX
5
2e0
100
AcDbEntity
8
1
100
AcDbVertex
100
AcDb2dVertex
62
5
10
-127.005910
20
528.766273
0
VERTEX
5
2e1
100
AcDbEntity
8
1
100
AcDbVertex
100
AcDb2dVertex
62
5
10
-127.005910
20
528.203773
0
SEQEND
5
2e2
100
AcDbEntity
8
1
0
POLYLINE
5
2e3
100
AcDbEntity
8
1
6
CONTINUOUS
62
5
100
AcDb2dPolyline
66
1
10
0.0
20
0.0
30
0.0
70
1
0
VERTEX
5
2e4
100
AcDbEntity
8
1
100
AcDbVertex
100
AcDb2dVertex
62
5
10
-127.521535
20
528.766273
0
VERTEX
5
2e5
100
AcDbEntity
8
1
100
AcDbVertex
100
AcDb2dVertex
62
5
10
-127.474660
20
528.766273
0
VERTEX
5
2e6
100
AcDbEntity
8
1
100
AcDbVertex
100
AcDb2dVertex
62
5
10
-127.427785
20
528.742835
0
VERTEX
5
2e7
100
AcDbEntity
8
1
100
AcDbVertex
100
AcDb2dVertex
62
5
10
-127.404347
20
528.719398
0
VERTEX
5
2e8
100
AcDbEntity
8
1
100
AcDbVertex
100
AcDb2dVertex
62
5
10
-127.380910
20
528.625648
0
VERTEX
5
2e9
100
AcDbEntity
8
1
100
AcDbVertex
100
AcDb2dVertex
62
5
10
-127.380910
20
528.344398
0
VERTEX
5
2ea
100
AcDbEntity
8
1
100
AcDbVertex
100
AcDb2dVertex
62
5
10
-127.404347
20
528.250648
0
VERTEX
5
2eb
100
AcDbEntity
8
1
100
AcDbVertex
100
AcDb2dVertex
62
5
10
-127.427785
20
528.227210
0
VERTEX
5
2ec
100
AcDbEntity
8
1
100
AcDbVertex
100
AcDb2dVertex
62
5
10
-127.474660
20
528.203773
0
VERTEX
5
2ed
100
AcDbEntity
8
1
100
AcDbVertex
100
AcDb2dVertex
62
5
10
-127.521535
20
528.203773
0
VERTEX
5
2ee
100
AcDbEntity
8
1
100
AcDbVertex
100
AcDb2dVertex
62
5
10
-127.568410
20
528.227210
0
VERTEX
5
2ef
100
AcDbEntity
8
1
100
AcDbVertex
100
AcDb2dVertex
62
5
10
-127.591847
20
528.250648
0
VERTEX
5
2f0
100
AcDbEntity
8
1
100
AcDbVertex
100
AcDb2dVertex
62
5
10
-127.615285
20
528.344398
0
VERTEX
5
2f1
100
AcDbEntity
8
1
100
AcDbVertex
100
AcDb2dVertex
62
5
10
-127.615285
20
528.625648
0
VERTEX
5
2f2
100
AcDbEntity
8
1
100
AcDbVertex
100
AcDb2dVertex
62
5
10
-127.591847
20
528.719398
0
VERTEX
5
2f3
100
AcDbEntity
8
1
100
AcDbVertex
100
AcDb2dVertex
62
5
10
-127.568410
20
528.742835
0
VERTEX
5
2f4
100
AcDbEntity
8
1
100
AcDbVertex
100
AcDb2dVertex
62
5
10
-127.521535
20
528.766273
0
SEQEND
5
2f5
100
AcDbEntity
8
1
0
POLYLINE
5
2f6
100
AcDbEntity
8
1
6
CONTINUOUS
62
5
100
AcDb2dPolyline
66
1
10
0.0
20
0.0
30
0.0
70
0
0
VERTEX
5
2f7
100
AcDbEntity
8
1
100
AcDbVertex
100
AcDb2dVertex
62
5
10
-127.755910
20
528.649085
0
VERTEX
5
2f8
100
AcDbEntity
8
1
100
AcDbVertex
100
AcDb2dVertex
62
5
10
-127.779347
20
528.719398
0
VERTEX
5
2f9
100
AcDbEntity
8
1
100
AcDbVertex
100
AcDb2dVertex
62
5
10
-127.826222
20
528.766273
0
VERTEX
5
2fa
100
AcDbEntity
8
1
100
AcDbVertex
100
AcDb2dVertex
62
5
10
-127.896535
20
528.766273
0
VERTEX
5
2fb
100
AcDbEntity
8
1
100
AcDbVertex
100
AcDb2dVertex
62
5
10
-127.966847
20
528.695960
0
VERTEX
5
2fc
100
AcDbEntity
8
1
100
AcDbVertex
100
AcDb2dVertex
62
5
10
-127.990285
20
528.578773
0
VERTEX
5
2fd
100
AcDbEntity
8
1
100
AcDbVertex
100
AcDb2dVertex
62
5
10
-127.990285
20
528.391273
0
VERTEX
5
2fe
100
AcDbEntity
8
1
100
AcDbVertex
100
AcDb2dVertex
62
5
10
-127.966847
20
528.274085
0
VERTEX
5
2ff
100
AcDbEntity
8
1
100
AcDbVertex
100
AcDb2dVertex
62
5
10
-127.896535
20
528.203773
0
VERTEX
5
300
100
AcDbEntity
8
1
100
AcDbVertex
100
AcDb2dVertex
62
5
10
-127.826222
20
528.203773
0
VERTEX
5
301
100
AcDbEntity
8
1
100
AcDbVertex
100
AcDb2dVertex
62
5
10
-127.779347
20
528.250648
0
VERTEX
5
302
100
AcDbEntity
8
1
100
AcDbVertex
100
AcDb2dVertex
62
5
10
-127.732472
20
528.367835
0
SEQEND
5
303
100
AcDbEntity
8
1
0
POLYLINE
5
304
100
AcDbEntity
8
1
6
CONTINUOUS
62
5
100
AcDb2dPolyline
66
1
10
0.0
20
0.0
30
0.0
70
0
0
VERTEX
5
305
100
AcDbEntity
8
1
100
AcDbVertex
100
AcDb2dVertex
62
5
10
-126.974660
20
522.816273
0
VERTEX
5
306
100
AcDbEntity
8
1
100
AcDbVertex
100
AcDb2dVertex
62
5
10
-127.365285
20
522.816273
0
VERTEX
5
307
100
AcDbEntity
8
1
100
AcDbVertex
100
AcDb2dVertex
62
5
10
-127.365285
20
521.878773
0
VERTEX
5
308
100
AcDbEntity
8
1
100
AcDbVertex
100
AcDb2dVertex
62
5
10
-126.935597
20
521.878773
0
SEQEND
5
309
100
AcDbEntity
8
1
0
LINE
5
30a
100
AcDbEntity
8
1
100
AcDbLine
6
CONTINUOUS
62
5
10
-127.365285
20
522.347523
11
-127.013722
21
522.347523
0
POLYLINE
5
30b
100
AcDbEntity
8
1
6
CONTINUOUS
62
5
100
AcDb2dPolyline
66
1
10
0.0
20
0.0
30
0.0
70
0
0
VERTEX
5
30c
100
AcDbEntity
8
1
100
AcDbVertex
100
AcDb2dVertex
62
5
10
-126.740285
20
521.878773
0
VERTEX
5
30d
100
AcDbEntity
8
1
100
AcDbVertex
100
AcDb2dVertex
62
5
10
-126.740285
20
522.816273
0
VERTEX
5
30e
100
AcDbEntity
8
1
100
AcDbVertex
100
AcDb2dVertex
62
5
10
-126.349660
20
521.878773
0
VERTEX
5
30f
100
AcDbEntity
8
1
100
AcDbVertex
100
AcDb2dVertex
62
5
10
-126.349660
20
522.816273
0
SEQEND
5
310
100
AcDbEntity
8
1
0
POLYLINE
5
311
100
AcDbEntity
8
1
6
CONTINUOUS
62
5
100
AcDb2dPolyline
66
1
10
0.0
20
0.0
30
0.0
70
0
0
VERTEX
5
312
100
AcDbEntity
8
1
100
AcDbVertex
100
AcDb2dVertex
62
5
10
-125.724660
20
522.620960
0
VERTEX
5
313
100
AcDbEntity
8
1
100
AcDbVertex
100
AcDb2dVertex
62
5
10
-125.763722
20
522.738148
0
VERTEX
5
314
100
AcDbEntity
8
1
100
AcDbVertex
100
AcDb2dVertex
62
5
10
-125.841847
20
522.816273
0
VERTEX
5
315
100
AcDbEntity
8
1
100
AcDbVertex
100
AcDb2dVertex
62
5
10
-125.959035
20
522.816273
0
VERTEX
5
316
100
AcDbEntity
8
1
100
AcDbVertex
100
AcDb2dVertex
62
5
10
-126.076222
20
522.699085
0
VERTEX
5
317
100
AcDbEntity
8
1
100
AcDbVertex
100
AcDb2dVertex
62
5
10
-126.115285
20
522.503773
0
VERTEX
5
318
100
AcDbEntity
8
1
100
AcDbVertex
100
AcDb2dVertex
62
5
10
-126.115285
20
522.191273
0
VERTEX
5
319
100
AcDbEntity
8
1
100
AcDbVertex
100
AcDb2dVertex
62
5
10
-126.076222
20
521.995960
0
VERTEX
5
31a
100
AcDbEntity
8
1
100
AcDbVertex
100
AcDb2dVertex
62
5
10
-125.959035
20
521.878773
0
VERTEX
5
31b
100
AcDbEntity
8
1
100
AcDbVertex
100
AcDb2dVertex
62
5
10
-125.841847
20
521.878773
0
VERTEX
5
31c
100
AcDbEntity
8
1
100
AcDbVertex
100
AcDb2dVertex
62
5
10
-125.763722
20
521.956898
0
VERTEX
5
31d
100
AcDbEntity
8
1
100
AcDbVertex
100
AcDb2dVertex
62
5
10
-125.685597
20
522.152210
0
SEQEND
5
31e
100
AcDbEntity
8
1
0
POLYLINE
5
31f
100
AcDbEntity
8
1
6
CONTINUOUS
62
5
100
AcDb2dPolyline
66
1
10
0.0
20
0.0
30
0.0
70
1
0
VERTEX
5
320
100
AcDbEntity
8
1
100
AcDbVertex
100
AcDb2dVertex
62
5
10
-125.334035
20
522.816273
0
VERTEX
5
321
100
AcDbEntity
8
1
100
AcDbVertex
100
AcDb2dVertex
62
5
10
-125.255910
20
522.816273
0
VERTEX
5
322
100
AcDbEntity
8
1
100
AcDbVertex
100
AcDb2dVertex
62
5
10
-125.177785
20
522.777210
0
VERTEX
5
323
100
AcDbEntity
8
1
100
AcDbVertex
100
AcDb2dVertex
62
5
10
-125.138722
20
522.738148
0
VERTEX
5
324
100
AcDbEntity
8
1
100
AcDbVertex
100
AcDb2dVertex
62
5
10
-125.099660
20
522.581898
0
VERTEX
5
325
100
AcDbEntity
8
1
100
AcDbVertex
100
AcDb2dVertex
62
5
10
-125.099660
20
522.113148
0
VERTEX
5
326
100
AcDbEntity
8
1
100
AcDbVertex
100
AcDb2dVertex
62
5
10
-125.138722
20
521.956898
0
VERTEX
5
327
100
AcDbEntity
8
1
100
AcDbVertex
100
AcDb2dVertex
62
5
10
-125.177785
20
521.917835
0
VERTEX
5
328
100
AcDbEntity
8
1
100
AcDbVertex
100
AcDb2dVertex
62
5
10
-125.255910
20
521.878773
0
VERTEX
5
329
100
AcDbEntity
8
1
100
AcDbVertex
100
AcDb2dVertex
62
5
10
-125.334035
20
521.878773
0
VERTEX
5
32a
100
AcDbEntity
8
1
100
AcDbVertex
100
AcDb2dVertex
62
5
10
-125.412160
20
521.917835
0
VERTEX
5
32b
100
AcDbEntity
8
1
100
AcDbVertex
100
AcDb2dVertex
62
5
10
-125.451222
20
521.956898
0
VERTEX
5
32c
100
AcDbEntity
8
1
100
AcDbVertex
100
AcDb2dVertex
62
5
10
-125.490285
20
522.113148
0
VERTEX
5
32d
100
AcDbEntity
8
1
100
AcDbVertex
100
AcDb2dVertex
62
5
10
-125.490285
20
522.581898
0
VERTEX
5
32e
100
AcDbEntity
8
1
100
AcDbVertex
100
AcDb2dVertex
62
5
10
-125.451222
20
522.738148
0
VERTEX
5
32f
100
AcDbEntity
8
1
100
AcDbVertex
100
AcDb2dVertex
62
5
10
-125.412160
20
522.777210
0
VERTEX
5
330
100
AcDbEntity
8
1
100
AcDbVertex
100
AcDb2dVertex
62
5
10
-125.334035
20
522.816273
0
SEQEND
5
331
100
AcDbEntity
8
1
0
POLYLINE
5
332
100
AcDbEntity
8
1
6
CONTINUOUS
62
5
100
AcDb2dPolyline
66
1
10
0.0
20
0.0
30
0.0
70
0
0
VERTEX
5
333
100
AcDbEntity
8
1
100
AcDbVertex
100
AcDb2dVertex
62
5
10
-124.865285
20
522.816273
0
VERTEX
5
334
100
AcDbEntity
8
1
100
AcDbVertex
100
AcDb2dVertex
62
5
10
-124.865285
20
522.074085
0
VERTEX
5
335
100
AcDbEntity
8
1
100
AcDbVertex
100
AcDb2dVertex
62
5
10
-124.826222
20
521.956898
0
VERTEX
5
336
100
AcDbEntity
8
1
100
AcDbVertex
100
AcDb2dVertex
62
5
10
-124.787160
20
521.917835
0
VERTEX
5
337
100
AcDbEntity
8
1
100
AcDbVertex
100
AcDb2dVertex
62
5
10
-124.709035
20
521.878773
0
VERTEX
5
338
100
AcDbEntity
8
1
100
AcDbVertex
100
AcDb2dVertex
62
5
10
-124.630910
20
521.878773
0
VERTEX
5
339
100
AcDbEntity
8
1
100
AcDbVertex
100
AcDb2dVertex
62
5
10
-124.552785
20
521.917835
0
VERTEX
5
33a
100
AcDbEntity
8
1
100
AcDbVertex
100
AcDb2dVertex
62
5
10
-124.513722
20
521.956898
0
VERTEX
5
33b
100
AcDbEntity
8
1
100
AcDbVertex
100
AcDb2dVertex
62
5
10
-124.474660
20
522.074085
0
VERTEX
5
33c
100
AcDbEntity
8
1
100
AcDbVertex
100
AcDb2dVertex
62
5
10
-124.474660
20
522.816273
0
SEQEND
5
33d
100
AcDbEntity
8
1
0
LINE
5
33e
100
AcDbEntity
8
1
100
AcDbLine
6
CONTINUOUS
62
5
10
-124.240285
20
522.816273
11
-123.849660
21
522.816273
0
LINE
5
33f
100
AcDbEntity
8
1
100
AcDbLine
6
CONTINUOUS
62
5
10
-124.044972
20
522.816273
11
-124.044972
21
521.878773
0
POLYLINE
5
340
100
AcDbEntity
8
1
6
CONTINUOUS
62
5
100
AcDb2dPolyline
66
1
10
0.0
20
0.0
30
0.0
70
0
0
VERTEX
5
341
100
AcDbEntity
8
1
100
AcDbVertex
100
AcDb2dVertex
62
5
10
-129.788611
20
524.422523
0
VERTEX
5
342
100
AcDbEntity
8
1
100
AcDbVertex
100
AcDb2dVertex
62
5
10
-129.788611
20
524.985023
0
VERTEX
5
343
100
AcDbEntity
8
1
100
AcDbVertex
100
AcDb2dVertex
62
5
10
-129.554236
20
524.422523
0
VERTEX
5
344
100
AcDbEntity
8
1
100
AcDbVertex
100
AcDb2dVertex
62
5
10
-129.554236
20
524.985023
0
SEQEND
5
345
100
AcDbEntity
8
1
0
LINE
5
346
100
AcDbEntity
8
1
100
AcDbLine
6
CONTINUOUS
62
5
10
-130.116736
20
524.985023
11
-129.976111
21
524.985023
0
LINE
5
347
100
AcDbEntity
8
1
100
AcDbLine
6
CONTINUOUS
62
5
10
-130.046423
20
524.985023
11
-130.046423
21
524.422523
0
LINE
5
348
100
AcDbEntity
8
1
100
AcDbLine
6
CONTINUOUS
62
5
10
-130.116736
20
524.422523
11
-129.976111
21
524.422523
0
POLYLINE
5
349
100
AcDbEntity
8
1
6
CONTINUOUS
62
5
100
AcDb2dPolyline
66
1
10
0.0
20
0.0
30
0.0
70
0
0
VERTEX
5
34a
100
AcDbEntity
8
1
100
AcDbVertex
100
AcDb2dVertex
62
5
10
-123.396361
20
524.938148
0
VERTEX
5
34b
100
AcDbEntity
8
1
100
AcDbVertex
100
AcDb2dVertex
62
5
10
-123.443236
20
525.031898
0
VERTEX
5
34c
100
AcDbEntity
8
1
100
AcDbVertex
100
AcDb2dVertex
62
5
10
-123.513549
20
525.055335
0
VERTEX
5
34d
100
AcDbEntity
8
1
100
AcDbVertex
100
AcDb2dVertex
62
5
10
-123.560424
20
525.055335
0
VERTEX
5
34e
100
AcDbEntity
8
1
100
AcDbVertex
100
AcDb2dVertex
62
5
10
-123.607299
20
525.031898
0
VERTEX
5
34f
100
AcDbEntity
8
1
100
AcDbVertex
100
AcDb2dVertex
62
5
10
-123.654174
20
524.961585
0
VERTEX
5
350
100
AcDbEntity
8
1
100
AcDbVertex
100
AcDb2dVertex
62
5
10
-123.654174
20
524.891273
0
VERTEX
5
351
100
AcDbEntity
8
1
100
AcDbVertex
100
AcDb2dVertex
62
5
10
-123.607299
20
524.820960
0
VERTEX
5
352
100
AcDbEntity
8
1
100
AcDbVertex
100
AcDb2dVertex
62
5
10
-123.443236
20
524.727210
0
VERTEX
5
353
100
AcDbEntity
8
1
100
AcDbVertex
100
AcDb2dVertex
62
5
10
-123.396361
20
524.656898
0
VERTEX
5
354
100
AcDbEntity
8
1
100
AcDbVertex
100
AcDb2dVertex
62
5
10
-123.396361
20
524.586585
0
VERTEX
5
355
100
AcDbEntity
8
1
100
AcDbVertex
100
AcDb2dVertex
62
5
10
-123.443236
20
524.516273
0
VERTEX
5
356
100
AcDbEntity
8
1
100
AcDbVertex
100
AcDb2dVertex
62
5
10
-123.513549
20
524.492835
0
VERTEX
5
357
100
AcDbEntity
8
1
100
AcDbVertex
100
AcDb2dVertex
62
5
10
-123.560424
20
524.492835
0
VERTEX
5
358
100
AcDbEntity
8
1
100
AcDbVertex
100
AcDb2dVertex
62
5
10
-123.630736
20
524.539710
0
VERTEX
5
359
100
AcDbEntity
8
1
100
AcDbVertex
100
AcDb2dVertex
62
5
10
-123.654174
20
524.633460
0
SEQEND
5
35a
100
AcDbEntity
8
1
0
POLYLINE
5
35b
100
AcDbEntity
8
1
6
CONTINUOUS
62
5
100
AcDb2dPolyline
66
1
10
0.0
20
0.0
30
0.0
70
0
0
VERTEX
5
35c
100
AcDbEntity
8
1
100
AcDbVertex
100
AcDb2dVertex
62
5
10
-124.005736
20
524.492835
0
VERTEX
5
35d
100
AcDbEntity
8
1
100
AcDbVertex
100
AcDb2dVertex
62
5
10
-123.888549
20
525.055335
0
VERTEX
5
35e
100
AcDbEntity
8
1
100
AcDbVertex
100
AcDb2dVertex
62
5
10
-123.771361
20
524.492835
0
SEQEND
5
35f
100
AcDbEntity
8
1
0
LINE
5
360
100
AcDbEntity
8
1
100
AcDbLine
6
CONTINUOUS
62
5
10
-123.958861
20
524.680335
11
-123.818236
21
524.680335
0
LINE
5
361
100
AcDbEntity
8
1
100
AcDbLine
6
CONTINUOUS
62
5
10
-124.380736
20
525.055335
11
-124.380736
21
524.492835
0
POLYLINE
5
362
100
AcDbEntity
8
1
6
CONTINUOUS
62
5
100
AcDb2dPolyline
66
1
10
0.0
20
0.0
30
0.0
70
0
0
VERTEX
5
363
100
AcDbEntity
8
1
100
AcDbVertex
100
AcDb2dVertex
62
5
10
-124.380736
20
525.055335
0
VERTEX
5
364
100
AcDbEntity
8
1
100
AcDbVertex
100
AcDb2dVertex
62
5
10
-124.263549
20
525.055335
0
VERTEX
5
365
100
AcDbEntity
8
1
100
AcDbVertex
100
AcDb2dVertex
62
5
10
-124.216674
20
525.031898
0
VERTEX
5
366
100
AcDbEntity
8
1
100
AcDbVertex
100
AcDb2dVertex
62
5
10
-124.193236
20
525.008460
0
VERTEX
5
367
100
AcDbEntity
8
1
100
AcDbVertex
100
AcDb2dVertex
62
5
10
-124.169799
20
524.961585
0
VERTEX
5
368
100
AcDbEntity
8
1
100
AcDbVertex
100
AcDb2dVertex
62
5
10
-124.169799
20
524.891273
0
VERTEX
5
369
100
AcDbEntity
8
1
100
AcDbVertex
100
AcDb2dVertex
62
5
10
-124.193236
20
524.844398
0
VERTEX
5
36a
100
AcDbEntity
8
1
100
AcDbVertex
100
AcDb2dVertex
62
5
10
-124.216674
20
524.820960
0
VERTEX
5
36b
100
AcDbEntity
8
1
100
AcDbVertex
100
AcDb2dVertex
62
5
10
-124.263549
20
524.797523
0
VERTEX
5
36c
100
AcDbEntity
8
1
100
AcDbVertex
100
AcDb2dVertex
62
5
10
-124.380736
20
524.797523
0
SEQEND
5
36d
100
AcDbEntity
8
1
0
POLYLINE
5
36e
100
AcDbEntity
8
1
6
CONTINUOUS
62
5
100
AcDb2dPolyline
66
1
10
0.0
20
0.0
30
0.0
70
0
0
VERTEX
5
36f
100
AcDbEntity
8
1
100
AcDbVertex
100
AcDb2dVertex
62
5
10
-124.263549
20
524.797523
0
VERTEX
5
370
100
AcDbEntity
8
1
100
AcDbVertex
100
AcDb2dVertex
62
5
10
-124.216674
20
524.774085
0
VERTEX
5
371
100
AcDbEntity
8
1
100
AcDbVertex
100
AcDb2dVertex
62
5
10
-124.169799
20
524.727210
0
VERTEX
5
372
100
AcDbEntity
8
1
100
AcDbVertex
100
AcDb2dVertex
62
5
10
-124.146361
20
524.680335
0
VERTEX
5
373
100
AcDbEntity
8
1
100
AcDbVertex
100
AcDb2dVertex
62
5
10
-124.146361
20
524.586585
0
VERTEX
5
374
100
AcDbEntity
8
1
100
AcDbVertex
100
AcDb2dVertex
62
5
10
-124.169799
20
524.539710
0
VERTEX
5
375
100
AcDbEntity
8
1
100
AcDbVertex
100
AcDb2dVertex
62
5
10
-124.193236
20
524.516273
0
VERTEX
5
376
100
AcDbEntity
8
1
100
AcDbVertex
100
AcDb2dVertex
62
5
10
-124.240111
20
524.492835
0
VERTEX
5
377
100
AcDbEntity
8
1
100
AcDbVertex
100
AcDb2dVertex
62
5
10
-124.380736
20
524.492835
0
SEQEND
5
378
100
AcDbEntity
8
1
0
POLYLINE
5
379
100
AcDbEntity
8
1
6
CONTINUOUS
62
5
100
AcDb2dPolyline
66
1
10
0.0
20
0.0
30
0.0
70
1
0
VERTEX
5
37a
100
AcDbEntity
8
1
100
AcDbVertex
100
AcDb2dVertex
62
5
10
-124.661986
20
525.055335
0
VERTEX
5
37b
100
AcDbEntity
8
1
100
AcDbVertex
100
AcDb2dVertex
62
5
10
-124.615111
20
525.055335
0
VERTEX
5
37c
100
AcDbEntity
8
1
100
AcDbVertex
100
AcDb2dVertex
62
5
10
-124.591674
20
525.031898
0
VERTEX
5
37d
100
AcDbEntity
8
1
100
AcDbVertex
100
AcDb2dVertex
62
5
10
-124.544799
20
524.938148
0
VERTEX
5
37e
100
AcDbEntity
8
1
100
AcDbVertex
100
AcDb2dVertex
62
5
10
-124.521361
20
524.844398
0
VERTEX
5
37f
100
AcDbEntity
8
1
100
AcDbVertex
100
AcDb2dVertex
62
5
10
-124.521361
20
524.703773
0
VERTEX
5
380
100
AcDbEntity
8
1
100
AcDbVertex
100
AcDb2dVertex
62
5
10
-124.544799
20
524.610023
0
VERTEX
5
381
100
AcDbEntity
8
1
100
AcDbVertex
100
AcDb2dVertex
62
5
10
-124.591674
20
524.516273
0
VERTEX
5
382
100
AcDbEntity
8
1
100
AcDbVertex
100
AcDb2dVertex
62
5
10
-124.615111
20
524.492835
0
VERTEX
5
383
100
AcDbEntity
8
1
100
AcDbVertex
100
AcDb2dVertex
62
5
10
-124.661986
20
524.492835
0
VERTEX
5
384
100
AcDbEntity
8
1
100
AcDbVertex
100
AcDb2dVertex
62
5
10
-124.685424
20
524.516273
0
VERTEX
5
385
100
AcDbEntity
8
1
100
AcDbVertex
100
AcDb2dVertex
62
5
10
-124.732299
20
524.610023
0
VERTEX
5
386
100
AcDbEntity
8
1
100
AcDbVertex
100
AcDb2dVertex
62
5
10
-124.755736
20
524.703773
0
VERTEX
5
387
100
AcDbEntity
8
1
100
AcDbVertex
100
AcDb2dVertex
62
5
10
-124.755736
20
524.844398
0
VERTEX
5
388
100
AcDbEntity
8
1
100
AcDbVertex
100
AcDb2dVertex
62
5
10
-124.732299
20
524.938148
0
VERTEX
5
389
100
AcDbEntity
8
1
100
AcDbVertex
100
AcDb2dVertex
62
5
10
-124.685424
20
525.031898
0
VERTEX
5
38a
100
AcDbEntity
8
1
100
AcDbVertex
100
AcDb2dVertex
62
5
10
-124.661986
20
525.055335
0
SEQEND
5
38b
100
AcDbEntity
8
1
0
POLYLINE
5
38c
100
AcDbEntity
8
1
6
CONTINUOUS
62
5
100
AcDb2dPolyline
66
1
10
0.0
20
0.0
30
0.0
70
1
0
VERTEX
5
38d
100
AcDbEntity
8
1
100
AcDbVertex
100
AcDb2dVertex
62
5
10
-125.036986
20
525.055335
0
VERTEX
5
38e
100
AcDbEntity
8
1
100
AcDbVertex
100
AcDb2dVertex
62
5
10
-124.990111
20
525.055335
0
VERTEX
5
38f
100
AcDbEntity
8
1
100
AcDbVertex
100
AcDb2dVertex
62
5
10
-124.966674
20
525.031898
0
VERTEX
5
390
100
AcDbEntity
8
1
100
AcDbVertex
100
AcDb2dVertex
62
5
10
-124.919799
20
524.938148
0
VERTEX
5
391
100
AcDbEntity
8
1
100
AcDbVertex
100
AcDb2dVertex
62
5
10
-124.896361
20
524.844398
0
VERTEX
5
392
100
AcDbEntity
8
1
100
AcDbVertex
100
AcDb2dVertex
62
5
10
-124.896361
20
524.703773
0
VERTEX
5
393
100
AcDbEntity
8
1
100
AcDbVertex
100
AcDb2dVertex
62
5
10
-124.919799
20
524.610023
0
VERTEX
5
394
100
AcDbEntity
8
1
100
AcDbVertex
100
AcDb2dVertex
62
5
10
-124.966674
20
524.516273
0
VERTEX
5
395
100
AcDbEntity
8
1
100
AcDbVertex
100
AcDb2dVertex
62
5
10
-124.990111
20
524.492835
0
VERTEX
5
396
100
AcDbEntity
8
1
100
AcDbVertex
100
AcDb2dVertex
62
5
10
-125.036986
20
524.492835
0
VERTEX
5
397
100
AcDbEntity
8
1
100
AcDbVertex
100
AcDb2dVertex
62
5
10
-125.060424
20
524.516273
0
VERTEX
5
398
100
AcDbEntity
8
1
100
AcDbVertex
100
AcDb2dVertex
62
5
10
-125.107299
20
524.610023
0
VERTEX
5
399
100
AcDbEntity
8
1
100
AcDbVertex
100
AcDb2dVertex
62
5
10
-125.130736
20
524.703773
0
VERTEX
5
39a
100
AcDbEntity
8
1
100
AcDbVertex
100
AcDb2dVertex
62
5
10
-125.130736
20
524.844398
0
VERTEX
5
39b
100
AcDbEntity
8
1
100
AcDbVertex
100
AcDb2dVertex
62
5
10
-125.107299
20
524.938148
0
VERTEX
5
39c
100
AcDbEntity
8
1
100
AcDbVertex
100
AcDb2dVertex
62
5
10
-125.060424
20
525.031898
0
VERTEX
5
39d
100
AcDbEntity
8
1
100
AcDbVertex
100
AcDb2dVertex
62
5
10
-125.036986
20
525.055335
0
SEQEND
5
39e
100
AcDbEntity
8
1
0
POLYLINE
5
39f
100
AcDbEntity
8
1
6
CONTINUOUS
62
5
100
AcDb2dPolyline
66
1
10
0.0
20
0.0
30
0.0
70
0
0
VERTEX
5
3a0
100
AcDbEntity
8
1
100
AcDbVertex
100
AcDb2dVertex
62
5
10
-125.458861
20
525.008460
0
VERTEX
5
3a1
100
AcDbEntity
8
1
100
AcDbVertex
100
AcDb2dVertex
62
5
10
-125.388549
20
525.055335
0
VERTEX
5
3a2
100
AcDbEntity
8
1
100
AcDbVertex
100
AcDb2dVertex
62
5
10
-125.388549
20
524.492835
0
SEQEND
5
3a3
100
AcDbEntity
8
1
0
LINE
5
3a4
100
AcDbEntity
8
1
100
AcDbLine
6
CONTINUOUS
62
5
10
-125.435424
20
524.492835
11
-125.341674
21
524.492835
0
LINE
5
3a5
100
AcDbEntity
8
1
100
AcDbLine
6
CONTINUOUS
62
5
10
-125.646361
20
525.078773
11
-125.880736
21
524.469398
0
POLYLINE
5
3a6
100
AcDbEntity
8
1
6
CONTINUOUS
62
5
100
AcDb2dPolyline
66
1
10
0.0
20
0.0
30
0.0
70
1
0
VERTEX
5
3a7
100
AcDbEntity
8
1
100
AcDbVertex
100
AcDb2dVertex
62
5
10
-126.161986
20
525.055335
0
VERTEX
5
3a8
100
AcDbEntity
8
1
100
AcDbVertex
100
AcDb2dVertex
62
5
10
-126.115111
20
525.055335
0
VERTEX
5
3a9
100
AcDbEntity
8
1
100
AcDbVertex
100
AcDb2dVertex
62
5
10
-126.091674
20
525.031898
0
VERTEX
5
3aa
100
AcDbEntity
8
1
100
AcDbVertex
100
AcDb2dVertex
62
5
10
-126.044799
20
524.938148
0
VERTEX
5
3ab
100
AcDbEntity
8
1
100
AcDbVertex
100
AcDb2dVertex
62
5
10
-126.021361
20
524.844398
0
VERTEX
5
3ac
100
AcDbEntity
8
1
100
AcDbVertex
100
AcDb2dVertex
62
5
10
-126.021361
20
524.703773
0
VERTEX
5
3ad
100
AcDbEntity
8
1
100
AcDbVertex
100
AcDb2dVertex
62
5
10
-126.044799
20
524.610023
0
VERTEX
5
3ae
100
AcDbEntity
8
1
100
AcDbVertex
100
AcDb2dVertex
62
5
10
-126.091674
20
524.516273
0
VERTEX
5
3af
100
AcDbEntity
8
1
100
AcDbVertex
100
AcDb2dVertex
62
5
10
-126.115111
20
524.492835
0
VERTEX
5
3b0
100
AcDbEntity
8
1
100
AcDbVertex
100
AcDb2dVertex
62
5
10
-126.161986
20
524.492835
0
VERTEX
5
3b1
100
AcDbEntity
8
1
100
AcDbVertex
100
AcDb2dVertex
62
5
10
-126.185424
20
524.516273
0
VERTEX
5
3b2
100
AcDbEntity
8
1
100
AcDbVertex
100
AcDb2dVertex
62
5
10
-126.232299
20
524.610023
0
VERTEX
5
3b3
100
AcDbEntity
8
1
100
AcDbVertex
100
AcDb2dVertex
62
5
10
-126.255736
20
524.703773
0
VERTEX
5
3b4
100
AcDbEntity
8
1
100
AcDbVertex
100
AcDb2dVertex
62
5
10
-126.255736
20
524.844398
0
VERTEX
5
3b5
100
AcDbEntity
8
1
100
AcDbVertex
100
AcDb2dVertex
62
5
10
-126.232299
20
524.938148
0
VERTEX
5
3b6
100
AcDbEntity
8
1
100
AcDbVertex
100
AcDb2dVertex
62
5
10
-126.185424
20
525.031898
0
VERTEX
5
3b7
100
AcDbEntity
8
1
100
AcDbVertex
100
AcDb2dVertex
62
5
10
-126.161986
20
525.055335
0
SEQEND
5
3b8
100
AcDbEntity
8
1
0
POLYLINE
5
3b9
100
AcDbEntity
8
1
6
CONTINUOUS
62
5
100
AcDb2dPolyline
66
1
10
0.0
20
0.0
30
0.0
70
0
0
VERTEX
5
3ba
100
AcDbEntity
8
1
100
AcDbVertex
100
AcDb2dVertex
62
5
10
-126.583861
20
525.008460
0
VERTEX
5
3bb
100
AcDbEntity
8
1
100
AcDbVertex
100
AcDb2dVertex
62
5
10
-126.513549
20
525.055335
0
VERTEX
5
3bc
100
AcDbEntity
8
1
100
AcDbVertex
100
AcDb2dVertex
62
5
10
-126.513549
20
524.492835
0
SEQEND
5
3bd
100
AcDbEntity
8
1
0
LINE
5
3be
100
AcDbEntity
8
1
100
AcDbLine
6
CONTINUOUS
62
5
10
-126.560424
20
524.492835
11
-126.466674
21
524.492835
0
LINE
5
3bf
100
AcDbEntity
8
1
100
AcDbLine
6
CONTINUOUS
62
5
10
-129.038611
20
524.985023
11
-128.804236
21
524.985023
0
LINE
5
3c0
100
AcDbEntity
8
1
100
AcDbLine
6
CONTINUOUS
62
5
10
-128.921423
20
524.985023
11
-128.921423
21
524.422523
0
LINE
5
3c1
100
AcDbEntity
8
1
100
AcDbLine
6
CONTINUOUS
62
5
10
-129.366736
20
524.985023
11
-129.226111
21
524.985023
0
LINE
5
3c2
100
AcDbEntity
8
1
100
AcDbLine
6
CONTINUOUS
62
5
10
-129.296423
20
524.985023
11
-129.296423
21
524.422523
0
LINE
5
3c3
100
AcDbEntity
8
1
100
AcDbLine
6
CONTINUOUS
62
5
10
-129.366736
20
524.422523
11
-129.226111
21
524.422523
0
POLYLINE
5
3c4
100
AcDbEntity
8
1
6
CONTINUOUS
62
5
100
AcDb2dPolyline
66
1
10
0.0
20
0.0
30
0.0
70
1
0
VERTEX
5
3c5
100
AcDbEntity
8
1
100
AcDbVertex
100
AcDb2dVertex
62
5
10
-134.891535
20
526.802117
0
VERTEX
5
3c6
100
AcDbEntity
8
1
100
AcDbVertex
100
AcDb2dVertex
62
5
10
-135.516535
20
527.162961
0
VERTEX
5
3c7
100
AcDbEntity
8
1
100
AcDbVertex
100
AcDb2dVertex
62
5
10
-136.141535
20
526.802117
0
VERTEX
5
3c8
100
AcDbEntity
8
1
100
AcDbVertex
100
AcDb2dVertex
62
5
10
-136.141535
20
526.080429
0
VERTEX
5
3c9
100
AcDbEntity
8
1
100
AcDbVertex
100
AcDb2dVertex
62
5
10
-135.516535
20
525.719585
0
VERTEX
5
3ca
100
AcDbEntity
8
1
100
AcDbVertex
100
AcDb2dVertex
62
5
10
-134.891535
20
526.080429
0
SEQEND
5
3cb
100
AcDbEntity
8
1
0
CIRCLE
5
3cc
100
AcDbEntity
8
1
100
AcDbCircle
6
CONTINUOUS
62
5
10
-135.516535
20
526.441273
40
0.195000
0
CIRCLE
5
3cd
100
AcDbEntity
8
1
100
AcDbCircle
6
DOT2
62
5
10
-135.516535
20
526.441273
40
0.325000
0
CIRCLE
5
3ce
100
AcDbEntity
8
1
100
AcDbCircle
6
CONTINUOUS
62
5
10
-135.516535
20
520.185023
40
0.187500
0
CIRCLE
5
3cf
100
AcDbEntity
8
1
100
AcDbCircle
6
DOT2
62
5
10
-135.516535
20
520.185023
40
0.312500
0
CIRCLE
5
3d0
100
AcDbEntity
8
1
100
AcDbCircle
6
CONTINUOUS
62
5
10
-130.646535
20
528.941273
40
0.787500
0
LINE
5
3d1
100
AcDbEntity
8
1
100
AcDbLine
6
CONTINUOUS
62
5
10
-130.089688
20
529.498120
11
-131.203381
21
528.384426
0
LINE
5
3d2
100
AcDbEntity
8
1
100
AcDbLine
6
CONTINUOUS
62
5
10
-130.328337
20
528.623075
11
-130.964733
21
529.259471
0
POLYLINE
5
3d3
100
AcDbEntity
8
1
6
CONTINUOUS
62
5
100
AcDb2dPolyline
66
1
10
0.0
20
0.0
30
0.0
70
1
0
VERTEX
5
3d4
100
AcDbEntity
8
1
100
AcDbVertex
100
AcDb2dVertex
62
5
10
-122.996535
20
526.186273
0
VERTEX
5
3d5
100
AcDbEntity
8
1
100
AcDbVertex
100
AcDb2dVertex
62
5
10
-122.996535
20
526.686273
0
VERTEX
5
3d6
100
AcDbEntity
8
1
100
AcDbVertex
100
AcDb2dVertex
62
5
10
-123.659035
20
526.686273
0
VERTEX
5
3d7
100
AcDbEntity
8
1
100
AcDbVertex
100
AcDb2dVertex
62
5
10
-123.659035
20
526.186273
0
SEQEND
5
3d8
100
AcDbEntity
8
1
0
POLYLINE
5
3d9
100
AcDbEntity
8
1
6
CONTINUOUS
62
5
100
AcDb2dPolyline
66
1
10
0.0
20
0.0
30
0.0
70
1
0
VERTEX
5
3da
100
AcDbEntity
8
1
100
AcDbVertex
100
AcDb2dVertex
62
5
10
-123.659035
20
526.186273
0
VERTEX
5
3db
100
AcDbEntity
8
1
100
AcDbVertex
100
AcDb2dVertex
62
5
10
-123.659035
20
526.686273
0
VERTEX
5
3dc
100
AcDbEntity
8
1
100
AcDbVertex
100
AcDb2dVertex
62
5
10
-122.996535
20
526.686273
0
VERTEX
5
3dd
100
AcDbEntity
8
1
100
AcDbVertex
100
AcDb2dVertex
62
5
10
-122.996535
20
528.361273
0
VERTEX
5
3de
100
AcDbEntity
8
1
100
AcDbVertex
100
AcDb2dVertex
62
5
10
-125.996535
20
528.361273
0
VERTEX
5
3df
100
AcDbEntity
8
1
100
AcDbVertex
100
AcDb2dVertex
62
5
10
-125.996535
20
526.686273
0
VERTEX
5
3e0
100
AcDbEntity
8
1
100
AcDbVertex
100
AcDb2dVertex
62
5
10
-125.334035
20
526.686273
0
VERTEX
5
3e1
100
AcDbEntity
8
1
100
AcDbVertex
100
AcDb2dVertex
62
5
10
-125.334035
20
526.186273
0
VERTEX
5
3e2
100
AcDbEntity
8
1
100
AcDbVertex
100
AcDb2dVertex
62
5
10
-125.046535
20
526.186273
0
VERTEX
5
3e3
100
AcDbEntity
8
1
100
AcDbVertex
100
AcDb2dVertex
62
5
10
-125.046535
20
525.936273
0
VERTEX
5
3e4
100
AcDbEntity
8
1
100
AcDbVertex
100
AcDb2dVertex
62
5
10
-123.946535
20
525.936273
0
VERTEX
5
3e5
100
AcDbEntity
8
1
100
AcDbVertex
100
AcDb2dVertex
62
5
10
-123.946535
20
526.186273
0
SEQEND
5
3e6
100
AcDbEntity
8
1
0
POLYLINE
5
3e7
100
AcDbEntity
8
1
6
CONTINUOUS
62
5
100
AcDb2dPolyline
66
1
10
0.0
20
0.0
30
0.0
70
0
0
VERTEX
5
3e8
100
AcDbEntity
8
1
100
AcDbVertex
100
AcDb2dVertex
62
5
10
-123.021361
20
525.055335
0
VERTEX
5
3e9
100
AcDbEntity
8
1
100
AcDbVertex
100
AcDb2dVertex
62
5
10
-123.255736
20
525.055335
0
VERTEX
5
3ea
100
AcDbEntity
8
1
100
AcDbVertex
100
AcDb2dVertex
62
5
10
-123.255736
20
524.492835
0
VERTEX
5
3eb
100
AcDbEntity
8
1
100
AcDbVertex
100
AcDb2dVertex
62
5
10
-122.997924
20
524.492835
0
SEQEND
5
3ec
100
AcDbEntity
8
1
0
LINE
5
3ed
100
AcDbEntity
8
1
100
AcDbLine
6
CONTINUOUS
62
5
10
-123.255736
20
524.774085
11
-123.044799
21
524.774085
0
POLYLINE
5
3ee
100
AcDbEntity
8
1
6
CONTINUOUS
62
5
100
AcDb2dPolyline
66
1
10
0.0
20
0.0
30
0.0
70
1
0
VERTEX
5
3ef
100
AcDbEntity
8
1
100
AcDbVertex
100
AcDb2dVertex
62
5
10
-122.509035
20
525.591273
0
VERTEX
5
3f0
100
AcDbEntity
8
1
100
AcDbVertex
100
AcDb2dVertex
62
5
10
-122.509035
20
528.966273
0
VERTEX
5
3f1
100
AcDbEntity
8
1
100
AcDbVertex
100
AcDb2dVertex
62
5
10
-126.484035
20
528.966273
0
VERTEX
5
3f2
100
AcDbEntity
8
1
100
AcDbVertex
100
AcDb2dVertex
62
5
10
-126.484035
20
525.591273
0
SEQEND
5
3f3
100
AcDbEntity
8
1
0
ARC
5
3f4
100
AcDbEntity
8
1
100
AcDbCircle
6
CONTINUOUS
62
5
10
-129.896535
20
528.216273
40
0.500000
100
AcDbArc
50
-89.999999
51
0.000000
0
POLYLINE
5
3f5
100
AcDbEntity
8
1
6
CONTINUOUS
62
5
100
AcDb2dPolyline
66
1
10
0.0
20
0.0
30
0.0
70
0
0
VERTEX
5
3f6
100
AcDbEntity
8
1
100
AcDbVertex
100
AcDb2dVertex
62
5
10
-129.896535
20
527.716273
0
VERTEX
5
3f7
100
AcDbEntity
8
1
100
AcDbVertex
100
AcDb2dVertex
62
5
10
-130.646535
20
527.716273
0
VERTEX
5
3f8
100
AcDbEntity
8
1
100
AcDbVertex
100
AcDb2dVertex
62
5
10
-130.646535
20
523.941273
0
VERTEX
5
3f9
100
AcDbEntity
8
1
100
AcDbVertex
100
AcDb2dVertex
62
5
10
-121.896535
20
523.941273
0
VERTEX
5
3fa
100
AcDbEntity
8
1
100
AcDbVertex
100
AcDb2dVertex
62
5
10
-121.896535
20
529.191273
0
VERTEX
5
3fb
100
AcDbEntity
8
1
100
AcDbVertex
100
AcDb2dVertex
62
5
10
-129.396535
20
529.191273
0
VERTEX
5
3fc
100
AcDbEntity
8
1
100
AcDbVertex
100
AcDb2dVertex
62
5
10
-129.396535
20
528.216273
0
SEQEND
5
3fd
100
AcDbEntity
8
1
0
LINE
5
3fe
100
AcDbEntity
8
1
100
AcDbLine
6
CONTINUOUS
62
5
10
-122.505736
20
525.055335
11
-122.271361
21
525.055335
0
LINE
5
3ff
100
AcDbEntity
8
1
100
AcDbLine
6
CONTINUOUS
62
5
10
-122.388549
20
525.055335
11
-122.388549
21
524.492835
0
LINE
5
400
100
AcDbEntity
8
1
100
AcDbLine
6
CONTINUOUS
62
5
10
-122.880736
20
524.774085
11
-122.646361
21
524.774085
0
ARC
5
401
100
AcDbEntity
8
1
100
AcDbCircle
6
CONTINUOUS
62
5
10
-117.396535
20
546.441273
40
3.000000
100
AcDbArc
50
120.000002
51
-164.999997
0
LINE
5
402
100
AcDbEntity
8
1
100
AcDbLine
6
CONTINUOUS
62
5
10
-119.709264
20
549.297259
11
-119.831954
21
549.292773
0
LINE
5
403
100
AcDbEntity
8
1
100
AcDbLine
6
CONTINUOUS
62
5
10
-119.831958
20
549.292774
11
-119.855571
21
549.172306
0
LINE
5
404
100
AcDbEntity
8
1
100
AcDbLine
6
CONTINUOUS
62
5
10
-120.127568
20
548.900302
11
-120.248042
21
548.876681
0
LINE
5
405
100
AcDbEntity
8
1
100
AcDbLine
6
CONTINUOUS
62
5
10
-120.116674
20
549.022586
11
-120.127568
21
548.900302
0
LINE
5
406
100
AcDbEntity
8
1
100
AcDbLine
6
CONTINUOUS
62
5
10
-119.977849
20
549.161412
11
-119.995135
21
549.039874
0
LINE
5
407
100
AcDbEntity
8
1
100
AcDbLine
6
CONTINUOUS
62
5
10
-119.995128
20
549.039862
11
-120.116672
21
549.022589
0
LINE
5
408
100
AcDbEntity
8
1
100
AcDbLine
6
CONTINUOUS
62
5
10
-119.855565
20
549.172304
11
-119.977847
21
549.161409
0
LINE
5
409
100
AcDbEntity
8
1
100
AcDbLine
6
CONTINUOUS
62
5
10
-116.814191
20
548.614595
11
-116.620074
21
549.339051
0
LINE
5
40a
100
AcDbEntity
8
1
100
AcDbLine
6
CONTINUOUS
62
5
10
-118.321538
20
548.043415
11
-118.075936
21
548.976824
0
LINE
5
40b
100
AcDbEntity
8
1
100
AcDbLine
6
CONTINUOUS
62
5
10
-118.075934
20
548.976824
11
-119.071536
21
549.342458
0
LINE
5
40c
100
AcDbEntity
8
1
100
AcDbLine
6
CONTINUOUS
62
5
10
-118.896535
20
549.039340
11
-119.071538
21
549.342458
0
LINE
5
40d
100
AcDbEntity
8
1
100
AcDbLine
6
CONTINUOUS
62
5
10
-114.545025
20
548.876697
11
-114.665484
21
548.900317
0
LINE
5
40e
100
AcDbEntity
8
1
100
AcDbLine
6
CONTINUOUS
62
5
10
-114.665484
20
548.900317
11
-114.676395
21
549.022603
0
LINE
5
40f
100
AcDbEntity
8
1
100
AcDbLine
6
CONTINUOUS
62
5
10
-114.937487
20
549.172319
11
-114.961116
21
549.292789
0
LINE
5
410
100
AcDbEntity
8
1
100
AcDbLine
6
CONTINUOUS
62
5
10
-114.961117
20
549.292790
11
-115.083790
21
549.297276
0
LINE
5
411
100
AcDbEntity
8
1
100
AcDbLine
6
CONTINUOUS
62
5
10
-114.815221
20
549.161412
11
-114.937488
21
549.172322
0
LINE
5
412
100
AcDbEntity
8
1
100
AcDbLine
6
CONTINUOUS
62
5
10
-114.797935
20
549.039877
11
-114.815221
21
549.161429
0
LINE
5
413
100
AcDbEntity
8
1
100
AcDbLine
6
CONTINUOUS
62
5
10
-114.676395
20
549.022603
11
-114.797933
21
549.039876
0
ARC
5
414
100
AcDbEntity
8
1
100
AcDbCircle
6
CONTINUOUS
62
5
10
-117.396535
20
546.441273
40
3.000000
100
AcDbArc
50
0.000000
51
74.999998
0
CIRCLE
5
415
100
AcDbEntity
8
1
100
AcDbCircle
6
CONTINUOUS
62
5
10
-117.396535
20
546.441273
40
3.650000
0
CIRCLE
5
416
100
AcDbEntity
8
1
100
AcDbCircle
6
CONTINUOUS
62
5
10
-117.396535
20
546.441273
40
5.000000
0
LINE
5
417
100
AcDbEntity
8
1
100
AcDbLine
6
CONTINUOUS
62
5
10
-119.556630
20
549.414388
11
-119.679381
21
549.416326
0
LINE
5
418
100
AcDbEntity
8
1
100
AcDbLine
6
CONTINUOUS
62
5
10
-119.679381
20
549.416323
11
-119.709271
21
549.297260
0
LINE
5
419
100
AcDbEntity
8
1
100
AcDbLine
6
CONTINUOUS
62
5
10
-115.272526
20
549.531741
11
-115.394993
21
549.523379
0
LINE
5
41a
100
AcDbEntity
8
1
100
AcDbLine
6
CONTINUOUS
62
5
10
-115.437176
20
549.638661
11
-115.559040
21
549.623906
0
LINE
5
41b
100
AcDbEntity
8
1
100
AcDbLine
6
CONTINUOUS
62
5
10
-115.394992
20
549.523366
11
-115.437175
21
549.638660
0
LINE
5
41c
100
AcDbEntity
8
1
100
AcDbLine
6
CONTINUOUS
62
5
10
-119.520551
20
549.531728
11
-119.556632
21
549.414385
0
LINE
5
41d
100
AcDbEntity
8
1
100
AcDbLine
6
CONTINUOUS
62
5
10
-119.185872
20
549.736819
11
-119.234027
21
549.623890
0
LINE
5
41e
100
AcDbEntity
8
1
100
AcDbLine
6
CONTINUOUS
62
5
10
-119.234021
20
549.623889
11
-119.355901
21
549.638660
0
LINE
5
41f
100
AcDbEntity
8
1
100
AcDbLine
6
CONTINUOUS
62
5
10
-119.355899
20
549.638661
11
-119.398067
21
549.523366
0
LINE
5
420
100
AcDbEntity
8
1
100
AcDbLine
6
CONTINUOUS
62
5
10
-119.398068
20
549.523365
11
-119.520551
21
549.531727
0
LINE
5
421
100
AcDbEntity
8
1
100
AcDbLine
6
CONTINUOUS
62
5
10
-115.559041
20
549.623906
11
-115.607197
21
549.736819
0
LINE
5
422
100
AcDbEntity
8
1
100
AcDbLine
6
CONTINUOUS
62
5
10
-115.236432
20
549.414388
11
-115.272525
21
549.531743
0
LINE
5
423
100
AcDbEntity
8
1
100
AcDbLine
6
CONTINUOUS
62
5
10
-115.113690
20
549.416339
11
-115.236433
21
549.414401
0
LINE
5
424
100
AcDbEntity
8
1
100
AcDbLine
6
CONTINUOUS
62
5
10
-115.083790
20
549.297275
11
-115.113689
21
549.416339
0
POLYLINE
5
425
100
AcDbEntity
8
1
6
CONTINUOUS
62
5
100
AcDb2dPolyline
66
1
10
0.0
20
0.0
30
0.0
70
1
0
VERTEX
5
426
100
AcDbEntity
8
1
100
AcDbVertex
100
AcDb2dVertex
62
5
10
-102.534035
20
548.053772
0
VERTEX
5
427
100
AcDbEntity
8
1
100
AcDbVertex
100
AcDb2dVertex
62
5
10
-107.259035
20
548.053772
0
VERTEX
5
428
100
AcDbEntity
8
1
100
AcDbVertex
100
AcDb2dVertex
62
5
10
-107.259035
20
544.828772
0
VERTEX
5
429
100
AcDbEntity
8
1
100
AcDbVertex
100
AcDb2dVertex
62
5
10
-102.534035
20
544.828772
0
SEQEND
5
42a
100
AcDbEntity
8
1
0
LINE
5
42b
100
AcDbEntity
8
1
100
AcDbLine
6
CONTINUOUS
62
5
10
-105.990285
20
540.641273
11
-105.990285
21
539.703773
0
POLYLINE
5
42c
100
AcDbEntity
8
1
6
CONTINUOUS
62
5
100
AcDb2dPolyline
66
1
10
0.0
20
0.0
30
0.0
70
0
0
VERTEX
5
42d
100
AcDbEntity
8
1
100
AcDbVertex
100
AcDb2dVertex
62
5
10
-105.990285
20
540.641273
0
VERTEX
5
42e
100
AcDbEntity
8
1
100
AcDbVertex
100
AcDb2dVertex
62
5
10
-105.834035
20
540.641273
0
VERTEX
5
42f
100
AcDbEntity
8
1
100
AcDbVertex
100
AcDb2dVertex
62
5
10
-105.716847
20
540.602210
0
VERTEX
5
430
100
AcDbEntity
8
1
100
AcDbVertex
100
AcDb2dVertex
62
5
10
-105.677785
20
540.563148
0
VERTEX
5
431
100
AcDbEntity
8
1
100
AcDbVertex
100
AcDb2dVertex
62
5
10
-105.638722
20
540.445960
0
VERTEX
5
432
100
AcDbEntity
8
1
100
AcDbVertex
100
AcDb2dVertex
62
5
10
-105.638722
20
540.328773
0
VERTEX
5
433
100
AcDbEntity
8
1
100
AcDbVertex
100
AcDb2dVertex
62
5
10
-105.677785
20
540.250648
0
VERTEX
5
434
100
AcDbEntity
8
1
100
AcDbVertex
100
AcDb2dVertex
62
5
10
-105.794972
20
540.172523
0
VERTEX
5
435
100
AcDbEntity
8
1
100
AcDbVertex
100
AcDb2dVertex
62
5
10
-105.990285
20
540.172523
0
SEQEND
5
436
100
AcDbEntity
8
1
0
POLYLINE
5
437
100
AcDbEntity
8
1
6
CONTINUOUS
62
5
100
AcDb2dPolyline
66
1
10
0.0
20
0.0
30
0.0
70
0
0
VERTEX
5
438
100
AcDbEntity
8
1
100
AcDbVertex
100
AcDb2dVertex
62
5
10
-105.794972
20
540.172523
0
VERTEX
5
439
100
AcDbEntity
8
1
100
AcDbVertex
100
AcDb2dVertex
62
5
10
-105.716847
20
540.133460
0
VERTEX
5
43a
100
AcDbEntity
8
1
100
AcDbVertex
100
AcDb2dVertex
62
5
10
-105.677785
20
540.055335
0
VERTEX
5
43b
100
AcDbEntity
8
1
100
AcDbVertex
100
AcDb2dVertex
62
5
10
-105.677785
20
539.781898
0
VERTEX
5
43c
100
AcDbEntity
8
1
100
AcDbVertex
100
AcDb2dVertex
62
5
10
-105.638722
20
539.703773
0
VERTEX
5
43d
100
AcDbEntity
8
1
100
AcDbVertex
100
AcDb2dVertex
62
5
10
-105.599660
20
539.703773
0
VERTEX
5
43e
100
AcDbEntity
8
1
100
AcDbVertex
100
AcDb2dVertex
62
5
10
-105.560597
20
539.781898
0
SEQEND
5
43f
100
AcDbEntity
8
1
0
LINE
5
440
100
AcDbEntity
8
0
100
AcDbLine
6
CONTINUOUS
62
5
10
-105.896535
20
544.478772
11
-105.896535
21
544.553773
0
ARC
5
441
100
AcDbEntity
8
0
100
AcDbCircle
6
CONTINUOUS
62
5
10
-104.896535
20
536.441273
40
1.875000
100
AcDbArc
50
-119.512999
51
-95.739009
0
LINE
5
442
100
AcDbEntity
8
0
100
AcDbLine
6
CONTINUOUS
62
5
10
-107.896535
20
534.191272
11
-101.896535
21
534.191272
0
LINE
5
443
100
AcDbEntity
8
0
100
AcDbLine
6
CONTINUOUS
62
5
10
-107.821536
20
534.253772
11
-101.971535
21
534.253772
0
LINE
5
444
100
AcDbEntity
8
0
100
AcDbLine
6
CONTINUOUS
62
5
10
-107.821536
20
538.628773
11
-101.971535
21
538.628773
0
LINE
5
445
100
AcDbEntity
8
1
100
AcDbLine
6
CONTINUOUS
62
5
10
-107.896535
20
538.691273
11
-101.896535
21
538.691273
0
CIRCLE
5
446
100
AcDbEntity
8
0
100
AcDbCircle
6
CONTINUOUS
62
5
10
-104.896535
20
536.441273
40
1.875000
0
LINE
5
447
100
AcDbEntity
8
0
100
AcDbLine
6
CONTINUOUS
62
5
10
-101.971547
20
544.191272
11
-107.821547
21
544.191272
0
LINE
5
448
100
AcDbEntity
8
0
100
AcDbLine
6
CONTINUOUS
62
5
10
-102.221547
20
544.228772
11
-107.571547
21
544.228772
0
LINE
5
449
100
AcDbEntity
8
0
100
AcDbLine
6
CONTINUOUS
62
5
10
-102.221547
20
544.478772
11
-107.571547
21
544.478772
0
LINE
5
44a
100
AcDbEntity
8
0
100
AcDbLine
6
CONTINUOUS
62
5
10
-102.371472
20
544.553773
11
-107.421585
21
544.553773
0
LINE
5
44b
100
AcDbEntity
8
0
100
AcDbLine
6
CONTINUOUS
62
5
10
-105.896535
20
548.328773
11
-105.896535
21
548.403774
0
LINE
5
44c
100
AcDbEntity
8
0
100
AcDbLine
6
CONTINUOUS
62
5
10
-101.971547
20
548.691274
11
-107.821547
21
548.691274
0
LINE
5
44d
100
AcDbEntity
8
0
100
AcDbLine
6
CONTINUOUS
62
5
10
-102.221547
20
548.653774
11
-107.571547
21
548.653774
0
LINE
5
44e
100
AcDbEntity
8
0
100
AcDbLine
6
CONTINUOUS
62
5
10
-102.221547
20
548.403774
11
-107.571547
21
548.403774
0
LINE
5
44f
100
AcDbEntity
8
0
100
AcDbLine
6
CONTINUOUS
62
5
10
-102.371472
20
548.328773
11
-107.421585
21
548.328773
0
ARC
5
450
100
AcDbEntity
8
1
100
AcDbCircle
6
CONTINUOUS
62
5
10
-95.848916
20
509.191273
40
1.577381
100
AcDbArc
50
-48.150996
51
48.150996
0
POLYLINE
5
451
100
AcDbEntity
8
1
6
CONTINUOUS
62
5
100
AcDb2dPolyline
66
1
10
0.0
20
0.0
30
0.0
70
1
0
VERTEX
5
452
100
AcDbEntity
8
1
100
AcDbVertex
100
AcDb2dVertex
62
5
10
-94.896535
20
510.366273
0
VERTEX
5
453
100
AcDbEntity
8
1
100
AcDbVertex
100
AcDb2dVertex
62
5
10
-94.896535
20
508.016273
0
VERTEX
5
454
100
AcDbEntity
8
1
100
AcDbVertex
100
AcDb2dVertex
62
5
10
-94.796535
20
508.016273
0
VERTEX
5
455
100
AcDbEntity
8
1
100
AcDbVertex
100
AcDb2dVertex
62
5
10
-94.796535
20
510.366273
0
SEQEND
5
456
100
AcDbEntity
8
1
0
POLYLINE
5
457
100
AcDbEntity
8
1
6
CONTINUOUS
62
5
100
AcDb2dPolyline
66
1
10
0.0
20
0.0
30
0.0
70
0
0
VERTEX
5
458
100
AcDbEntity
8
1
100
AcDbVertex
100
AcDb2dVertex
62
5
10
-102.552785
20
514.941273
0
VERTEX
5
459
100
AcDbEntity
8
1
100
AcDbVertex
100
AcDb2dVertex
62
5
10
-102.552785
20
515.878773
0
VERTEX
5
45a
100
AcDbEntity
8
1
100
AcDbVertex
100
AcDb2dVertex
62
5
10
-102.162160
20
514.941273
0
VERTEX
5
45b
100
AcDbEntity
8
1
100
AcDbVertex
100
AcDb2dVertex
62
5
10
-102.162160
20
515.878773
0
SEQEND
5
45c
100
AcDbEntity
8
1
0
POLYLINE
5
45d
100
AcDbEntity
8
1
6
CONTINUOUS
62
5
100
AcDb2dPolyline
66
1
10
0.0
20
0.0
30
0.0
70
0
0
VERTEX
5
45e
100
AcDbEntity
8
1
100
AcDbVertex
100
AcDb2dVertex
62
5
10
-101.537160
20
515.683460
0
VERTEX
5
45f
100
AcDbEntity
8
1
100
AcDbVertex
100
AcDb2dVertex
62
5
10
-101.576222
20
515.800648
0
VERTEX
5
460
100
AcDbEntity
8
1
100
AcDbVertex
100
AcDb2dVertex
62
5
10
-101.654347
20
515.878773
0
VERTEX
5
461
100
AcDbEntity
8
1
100
AcDbVertex
100
AcDb2dVertex
62
5
10
-101.771535
20
515.878773
0
VERTEX
5
462
100
AcDbEntity
8
1
100
AcDbVertex
100
AcDb2dVertex
62
5
10
-101.888722
20
515.761585
0
VERTEX
5
463
100
AcDbEntity
8
1
100
AcDbVertex
100
AcDb2dVertex
62
5
10
-101.927785
20
515.566273
0
VERTEX
5
464
100
AcDbEntity
8
1
100
AcDbVertex
100
AcDb2dVertex
62
5
10
-101.927785
20
515.253773
0
VERTEX
5
465
100
AcDbEntity
8
1
100
AcDbVertex
100
AcDb2dVertex
62
5
10
-101.888722
20
515.058460
0
VERTEX
5
466
100
AcDbEntity
8
1
100
AcDbVertex
100
AcDb2dVertex
62
5
10
-101.771535
20
514.941273
0
VERTEX
5
467
100
AcDbEntity
8
1
100
AcDbVertex
100
AcDb2dVertex
62
5
10
-101.654347
20
514.941273
0
VERTEX
5
468
100
AcDbEntity
8
1
100
AcDbVertex
100
AcDb2dVertex
62
5
10
-101.576222
20
515.019398
0
VERTEX
5
469
100
AcDbEntity
8
1
100
AcDbVertex
100
AcDb2dVertex
62
5
10
-101.498097
20
515.214710
0
SEQEND
5
46a
100
AcDbEntity
8
1
0
POLYLINE
5
46b
100
AcDbEntity
8
1
6
CONTINUOUS
62
5
100
AcDb2dPolyline
66
1
10
0.0
20
0.0
30
0.0
70
0
0
VERTEX
5
46c
100
AcDbEntity
8
1
100
AcDbVertex
100
AcDb2dVertex
62
5
10
-100.912160
20
515.878773
0
VERTEX
5
46d
100
AcDbEntity
8
1
100
AcDbVertex
100
AcDb2dVertex
62
5
10
-101.302785
20
515.878773
0
VERTEX
5
46e
100
AcDbEntity
8
1
100
AcDbVertex
100
AcDb2dVertex
62
5
10
-101.302785
20
514.941273
0
VERTEX
5
46f
100
AcDbEntity
8
1
100
AcDbVertex
100
AcDb2dVertex
62
5
10
-100.873097
20
514.941273
0
SEQEND
5
470
100
AcDbEntity
8
1
0
LINE
5
471
100
AcDbEntity
8
1
100
AcDbLine
6
CONTINUOUS
62
5
10
-101.302785
20
515.410023
11
-100.951222
21
515.410023
0
POLYLINE
5
472
100
AcDbEntity
8
1
6
CONTINUOUS
62
5
100
AcDb2dPolyline
66
1
10
0.0
20
0.0
30
0.0
70
0
0
VERTEX
5
473
100
AcDbEntity
8
1
100
AcDbVertex
100
AcDb2dVertex
62
5
10
-104.037160
20
515.878773
0
VERTEX
5
474
100
AcDbEntity
8
1
100
AcDbVertex
100
AcDb2dVertex
62
5
10
-104.427785
20
515.878773
0
VERTEX
5
475
100
AcDbEntity
8
1
100
AcDbVertex
100
AcDb2dVertex
62
5
10
-104.427785
20
514.941273
0
VERTEX
5
476
100
AcDbEntity
8
1
100
AcDbVertex
100
AcDb2dVertex
62
5
10
-103.998097
20
514.941273
0
SEQEND
5
477
100
AcDbEntity
8
1
0
LINE
5
478
100
AcDbEntity
8
1
100
AcDbLine
6
CONTINUOUS
62
5
10
-104.427785
20
515.410023
11
-104.076222
21
515.410023
0
LINE
5
479
100
AcDbEntity
8
1
100
AcDbLine
6
CONTINUOUS
62
5
10
-105.052785
20
515.878773
11
-104.662160
21
515.878773
0
LINE
5
47a
100
AcDbEntity
8
1
100
AcDbLine
6
CONTINUOUS
62
5
10
-104.857472
20
515.878773
11
-104.857472
21
514.941273
0
POLYLINE
5
47b
100
AcDbEntity
8
1
6
CONTINUOUS
62
5
100
AcDb2dPolyline
66
1
10
0.0
20
0.0
30
0.0
70
0
0
VERTEX
5
47c
100
AcDbEntity
8
1
100
AcDbVertex
100
AcDb2dVertex
62
5
10
-103.802785
20
514.941273
0
VERTEX
5
47d
100
AcDbEntity
8
1
100
AcDbVertex
100
AcDb2dVertex
62
5
10
-103.802785
20
515.878773
0
VERTEX
5
47e
100
AcDbEntity
8
1
100
AcDbVertex
100
AcDb2dVertex
62
5
10
-103.412160
20
514.941273
0
VERTEX
5
47f
100
AcDbEntity
8
1
100
AcDbVertex
100
AcDb2dVertex
62
5
10
-103.412160
20
515.878773
0
SEQEND
5
480
100
AcDbEntity
8
1
0
POLYLINE
5
481
100
AcDbEntity
8
1
6
CONTINUOUS
62
5
100
AcDb2dPolyline
66
1
10
0.0
20
0.0
30
0.0
70
0
0
VERTEX
5
482
100
AcDbEntity
8
1
100
AcDbVertex
100
AcDb2dVertex
62
5
10
-103.177785
20
514.941273
0
VERTEX
5
483
100
AcDbEntity
8
1
100
AcDbVertex
100
AcDb2dVertex
62
5
10
-102.982472
20
515.878773
0
VERTEX
5
484
100
AcDbEntity
8
1
100
AcDbVertex
100
AcDb2dVertex
62
5
10
-102.787160
20
514.941273
0
SEQEND
5
485
100
AcDbEntity
8
1
0
LINE
5
486
100
AcDbEntity
8
1
100
AcDbLine
6
CONTINUOUS
62
5
10
-103.099660
20
515.253773
11
-102.865285
21
515.253773
0
ARC
5
487
100
AcDbEntity
8
1
100
AcDbCircle
6
CONTINUOUS
62
5
10
-99.940363
20
504.691273
40
0.250000
100
AcDbArc
50
-89.999999
51
-1.432096
0
POLYLINE
5
488
100
AcDbEntity
8
1
6
CONTINUOUS
62
5
100
AcDb2dPolyline
66
1
10
0.0
20
0.0
30
0.0
70
0
0
VERTEX
5
489
100
AcDbEntity
8
1
100
AcDbVertex
100
AcDb2dVertex
62
5
10
-99.690441
20
504.685025
0
VERTEX
5
48a
100
AcDbEntity
8
1
100
AcDbVertex
100
AcDb2dVertex
62
5
10
-99.646535
20
506.441273
0
VERTEX
5
48b
100
AcDbEntity
8
1
100
AcDbVertex
100
AcDb2dVertex
62
5
10
-105.146535
20
506.441273
0
VERTEX
5
48c
100
AcDbEntity
8
1
100
AcDbVertex
100
AcDb2dVertex
62
5
10
-105.102629
20
504.685025
0
SEQEND
5
48d
100
AcDbEntity
8
1
0
ARC
5
48e
100
AcDbEntity
8
1
100
AcDbCircle
6
CONTINUOUS
62
5
10
-104.852707
20
504.691273
40
0.250000
100
AcDbArc
50
-178.567902
51
-89.999999
0
LINE
5
48f
100
AcDbEntity
8
1
100
AcDbLine
6
CONTINUOUS
62
5
10
-104.852707
20
504.441273
11
-99.940363
21
504.441273
0
POLYLINE
5
490
100
AcDbEntity
8
1
6
CONTINUOUS
62
5
100
AcDb2dPolyline
66
1
10
0.0
20
0.0
30
0.0
70
0
0
VERTEX
5
491
100
AcDbEntity
8
1
100
AcDbVertex
100
AcDb2dVertex
62
5
10
-107.552785
20
514.941273
0
VERTEX
5
492
100
AcDbEntity
8
1
100
AcDbVertex
100
AcDb2dVertex
62
5
10
-107.552785
20
515.878773
0
VERTEX
5
493
100
AcDbEntity
8
1
100
AcDbVertex
100
AcDb2dVertex
62
5
10
-107.357472
20
514.941273
0
VERTEX
5
494
100
AcDbEntity
8
1
100
AcDbVertex
100
AcDb2dVertex
62
5
10
-107.162160
20
515.878773
0
VERTEX
5
495
100
AcDbEntity
8
1
100
AcDbVertex
100
AcDb2dVertex
62
5
10
-107.162160
20
514.941273
0
SEQEND
5
496
100
AcDbEntity
8
1
0
POLYLINE
5
497
100
AcDbEntity
8
1
6
CONTINUOUS
62
5
100
AcDb2dPolyline
66
1
10
0.0
20
0.0
30
0.0
70
0
0
VERTEX
5
498
100
AcDbEntity
8
1
100
AcDbVertex
100
AcDb2dVertex
62
5
10
-106.927785
20
514.941273
0
VERTEX
5
499
100
AcDbEntity
8
1
100
AcDbVertex
100
AcDb2dVertex
62
5
10
-106.732472
20
515.878773
0
VERTEX
5
49a
100
AcDbEntity
8
1
100
AcDbVertex
100
AcDb2dVertex
62
5
10
-106.537160
20
514.941273
0
SEQEND
5
49b
100
AcDbEntity
8
1
0
LINE
5
49c
100
AcDbEntity
8
1
100
AcDbLine
6
CONTINUOUS
62
5
10
-106.849660
20
515.253773
11
-106.615285
21
515.253773
0
LINE
5
49d
100
AcDbEntity
8
1
100
AcDbLine
6
CONTINUOUS
62
5
10
-120.017766
20
509.562504
11
-119.275304
21
508.820042
0
LINE
5
49e
100
AcDbEntity
8
1
100
AcDbLine
6
CONTINUOUS
62
5
10
-119.275304
20
509.562504
11
-120.017766
21
508.820042
0
CIRCLE
5
49f
100
AcDbEntity
8
1
100
AcDbCircle
6
CONTINUOUS
62
5
10
-119.646535
20
509.191273
40
1.175000
0
POLYLINE
5
4a0
100
AcDbEntity
8
1
6
CONTINUOUS
62
5
100
AcDb2dPolyline
66
1
10
0.0
20
0.0
30
0.0
70
0
0
VERTEX
5
4a1
100
AcDbEntity
8
1
100
AcDbVertex
100
AcDb2dVertex
62
5
10
-126.474660
20
516.095960
0
VERTEX
5
4a2
100
AcDbEntity
8
1
100
AcDbVertex
100
AcDb2dVertex
62
5
10
-126.513722
20
516.213148
0
VERTEX
5
4a3
100
AcDbEntity
8
1
100
AcDbVertex
100
AcDb2dVertex
62
5
10
-126.591847
20
516.291273
0
VERTEX
5
4a4
100
AcDbEntity
8
1
100
AcDbVertex
100
AcDb2dVertex
62
5
10
-126.709035
20
516.291273
0
VERTEX
5
4a5
100
AcDbEntity
8
1
100
AcDbVertex
100
AcDb2dVertex
62
5
10
-126.826222
20
516.174085
0
VERTEX
5
4a6
100
AcDbEntity
8
1
100
AcDbVertex
100
AcDb2dVertex
62
5
10
-126.865285
20
515.978773
0
VERTEX
5
4a7
100
AcDbEntity
8
1
100
AcDbVertex
100
AcDb2dVertex
62
5
10
-126.865285
20
515.666273
0
VERTEX
5
4a8
100
AcDbEntity
8
1
100
AcDbVertex
100
AcDb2dVertex
62
5
10
-126.826222
20
515.470960
0
VERTEX
5
4a9
100
AcDbEntity
8
1
100
AcDbVertex
100
AcDb2dVertex
62
5
10
-126.709035
20
515.353773
0
VERTEX
5
4aa
100
AcDbEntity
8
1
100
AcDbVertex
100
AcDb2dVertex
62
5
10
-126.591847
20
515.353773
0
VERTEX
5
4ab
100
AcDbEntity
8
1
100
AcDbVertex
100
AcDb2dVertex
62
5
10
-126.513722
20
515.431898
0
VERTEX
5
4ac
100
AcDbEntity
8
1
100
AcDbVertex
100
AcDb2dVertex
62
5
10
-126.435597
20
515.627210
0
SEQEND
5
4ad
100
AcDbEntity
8
1
0
POLYLINE
5
4ae
100
AcDbEntity
8
1
6
CONTINUOUS
62
5
100
AcDb2dPolyline
66
1
10
0.0
20
0.0
30
0.0
70
1
0
VERTEX
5
4af
100
AcDbEntity
8
1
100
AcDbVertex
100
AcDb2dVertex
62
5
10
-126.084035
20
516.291273
0
VERTEX
5
4b0
100
AcDbEntity
8
1
100
AcDbVertex
100
AcDb2dVertex
62
5
10
-126.005910
20
516.291273
0
VERTEX
5
4b1
100
AcDbEntity
8
1
100
AcDbVertex
100
AcDb2dVertex
62
5
10
-125.927785
20
516.252210
0
VERTEX
5
4b2
100
AcDbEntity
8
1
100
AcDbVertex
100
AcDb2dVertex
62
5
10
-125.888722
20
516.213148
0
VERTEX
5
4b3
100
AcDbEntity
8
1
100
AcDbVertex
100
AcDb2dVertex
62
5
10
-125.849660
20
516.056898
0
VERTEX
5
4b4
100
AcDbEntity
8
1
100
AcDbVertex
100
AcDb2dVertex
62
5
10
-125.849660
20
515.588148
0
VERTEX
5
4b5
100
AcDbEntity
8
1
100
AcDbVertex
100
AcDb2dVertex
62
5
10
-125.888722
20
515.431898
0
VERTEX
5
4b6
100
AcDbEntity
8
1
100
AcDbVertex
100
AcDb2dVertex
62
5
10
-125.927785
20
515.392835
0
VERTEX
5
4b7
100
AcDbEntity
8
1
100
AcDbVertex
100
AcDb2dVertex
62
5
10
-126.005910
20
515.353773
0
VERTEX
5
4b8
100
AcDbEntity
8
1
100
AcDbVertex
100
AcDb2dVertex
62
5
10
-126.084035
20
515.353773
0
VERTEX
5
4b9
100
AcDbEntity
8
1
100
AcDbVertex
100
AcDb2dVertex
62
5
10
-126.162160
20
515.392835
0
VERTEX
5
4ba
100
AcDbEntity
8
1
100
AcDbVertex
100
AcDb2dVertex
62
5
10
-126.201222
20
515.431898
0
VERTEX
5
4bb
100
AcDbEntity
8
1
100
AcDbVertex
100
AcDb2dVertex
62
5
10
-126.240285
20
515.588148
0
VERTEX
5
4bc
100
AcDbEntity
8
1
100
AcDbVertex
100
AcDb2dVertex
62
5
10
-126.240285
20
516.056898
0
VERTEX
5
4bd
100
AcDbEntity
8
1
100
AcDbVertex
100
AcDb2dVertex
62
5
10
-126.201222
20
516.213148
0
VERTEX
5
4be
100
AcDbEntity
8
1
100
AcDbVertex
100
AcDb2dVertex
62
5
10
-126.162160
20
516.252210
0
VERTEX
5
4bf
100
AcDbEntity
8
1
100
AcDbVertex
100
AcDb2dVertex
62
5
10
-126.084035
20
516.291273
0
SEQEND
5
4c0
100
AcDbEntity
8
1
0
POLYLINE
5
4c1
100
AcDbEntity
8
1
6
CONTINUOUS
62
5
100
AcDb2dPolyline
66
1
10
0.0
20
0.0
30
0.0
70
0
0
VERTEX
5
4c2
100
AcDbEntity
8
1
100
AcDbVertex
100
AcDb2dVertex
62
5
10
-125.615285
20
515.353773
0
VERTEX
5
4c3
100
AcDbEntity
8
1
100
AcDbVertex
100
AcDb2dVertex
62
5
10
-125.615285
20
516.291273
0
VERTEX
5
4c4
100
AcDbEntity
8
1
100
AcDbVertex
100
AcDb2dVertex
62
5
10
-125.419972
20
515.353773
0
VERTEX
5
4c5
100
AcDbEntity
8
1
100
AcDbVertex
100
AcDb2dVertex
62
5
10
-125.224660
20
516.291273
0
VERTEX
5
4c6
100
AcDbEntity
8
1
100
AcDbVertex
100
AcDb2dVertex
62
5
10
-125.224660
20
515.353773
0
SEQEND
5
4c7
100
AcDbEntity
8
1
0
POLYLINE
5
4c8
100
AcDbEntity
8
1
6
CONTINUOUS
62
5
100
AcDb2dPolyline
66
1
10
0.0
20
0.0
30
0.0
70
0
0
VERTEX
5
4c9
100
AcDbEntity
8
1
100
AcDbVertex
100
AcDb2dVertex
62
5
10
-124.912160
20
516.213148
0
VERTEX
5
4ca
100
AcDbEntity
8
1
100
AcDbVertex
100
AcDb2dVertex
62
5
10
-124.794972
20
516.291273
0
VERTEX
5
4cb
100
AcDbEntity
8
1
100
AcDbVertex
100
AcDb2dVertex
62
5
10
-124.794972
20
515.353773
0
SEQEND
5
4cc
100
AcDbEntity
8
1
0
LINE
5
4cd
100
AcDbEntity
8
1
100
AcDbLine
6
CONTINUOUS
62
5
10
-124.873097
20
515.353773
11
-124.716847
21
515.353773
0
ARC
5
4ce
100
AcDbEntity
8
1
100
AcDbCircle
6
CONTINUOUS
62
5
10
-124.350790
20
512.866273
40
0.500000
100
AcDbArc
50
-89.999999
51
-10.000000
0
LINE
5
4cf
100
AcDbEntity
8
1
100
AcDbLine
6
CONTINUOUS
62
5
10
-124.350790
20
512.366273
11
-127.192279
21
512.366273
0
ARC
5
4d0
100
AcDbEntity
8
1
100
AcDbCircle
6
CONTINUOUS
62
5
10
-127.192279
20
512.866273
40
0.500000
100
AcDbArc
50
-169.999998
51
-89.999999
0
LINE
5
4d1
100
AcDbEntity
8
1
100
AcDbLine
6
CONTINUOUS
62
5
10
-127.684683
20
512.779449
11
-127.876439
21
513.866949
0
ARC
5
4d2
100
AcDbEntity
8
1
100
AcDbCircle
6
CONTINUOUS
62
5
10
-127.384035
20
513.953773
40
0.500000
100
AcDbArc
50
89.999999
51
-169.999998
0
LINE
5
4d3
100
AcDbEntity
8
1
100
AcDbLine
6
CONTINUOUS
62
5
10
-127.384035
20
514.453773
11
-124.159035
21
514.453773
0
ARC
5
4d4
100
AcDbEntity
8
1
100
AcDbCircle
6
CONTINUOUS
62
5
10
-124.159035
20
513.953773
40
0.500000
100
AcDbArc
50
-10.000000
51
89.999999
0
LINE
5
4d5
100
AcDbEntity
8
1
100
AcDbLine
6
CONTINUOUS
62
5
10
-123.666631
20
513.866949
11
-123.858387
21
512.779449
0
CIRCLE
5
4d6
100
AcDbEntity
8
1
100
AcDbCircle
6
CONTINUOUS
62
5
10
-128.895285
20
513.410023
40
0.187500
0
CIRCLE
5
4d7
100
AcDbEntity
8
1
100
AcDbCircle
6
DOT2
62
5
10
-128.895285
20
513.410023
40
0.312500
0
POLYLINE
5
4d8
100
AcDbEntity
8
1
6
CONTINUOUS
62
5
100
AcDb2dPolyline
66
1
10
0.0
20
0.0
30
0.0
70
1
0
VERTEX
5
4d9
100
AcDbEntity
8
1
100
AcDbVertex
100
AcDb2dVertex
62
5
10
-129.256129
20
514.035023
0
VERTEX
5
4da
100
AcDbEntity
8
1
100
AcDbVertex
100
AcDb2dVertex
62
5
10
-129.616973
20
513.410023
0
VERTEX
5
4db
100
AcDbEntity
8
1
100
AcDbVertex
100
AcDb2dVertex
62
5
10
-129.256129
20
512.785023
0
VERTEX
5
4dc
100
AcDbEntity
8
1
100
AcDbVertex
100
AcDb2dVertex
62
5
10
-128.534441
20
512.785023
0
VERTEX
5
4dd
100
AcDbEntity
8
1
100
AcDbVertex
100
AcDb2dVertex
62
5
10
-128.173597
20
513.410023
0
VERTEX
5
4de
100
AcDbEntity
8
1
100
AcDbVertex
100
AcDb2dVertex
62
5
10
-128.534441
20
514.035023
0
SEQEND
5
4df
100
AcDbEntity
8
1
0
POLYLINE
5
4e0
100
AcDbEntity
8
1
6
CONTINUOUS
62
5
100
AcDb2dPolyline
66
1
10
0.0
20
0.0
30
0.0
70
0
0
VERTEX
5
4e1
100
AcDbEntity
8
1
100
AcDbVertex
100
AcDb2dVertex
62
5
10
-137.412160
20
516.095960
0
VERTEX
5
4e2
100
AcDbEntity
8
1
100
AcDbVertex
100
AcDb2dVertex
62
5
10
-137.490285
20
516.252210
0
VERTEX
5
4e3
100
AcDbEntity
8
1
100
AcDbVertex
100
AcDb2dVertex
62
5
10
-137.607472
20
516.291273
0
VERTEX
5
4e4
100
AcDbEntity
8
1
100
AcDbVertex
100
AcDb2dVertex
62
5
10
-137.685597
20
516.291273
0
VERTEX
5
4e5
100
AcDbEntity
8
1
100
AcDbVertex
100
AcDb2dVertex
62
5
10
-137.763722
20
516.252210
0
VERTEX
5
4e6
100
AcDbEntity
8
1
100
AcDbVertex
100
AcDb2dVertex
62
5
10
-137.841847
20
516.135023
0
VERTEX
5
4e7
100
AcDbEntity
8
1
100
AcDbVertex
100
AcDb2dVertex
62
5
10
-137.841847
20
516.017835
0
VERTEX
5
4e8
100
AcDbEntity
8
1
100
AcDbVertex
100
AcDb2dVertex
62
5
10
-137.763722
20
515.900648
0
VERTEX
5
4e9
100
AcDbEntity
8
1
100
AcDbVertex
100
AcDb2dVertex
62
5
10
-137.490285
20
515.744398
0
VERTEX
5
4ea
100
AcDbEntity
8
1
100
AcDbVertex
100
AcDb2dVertex
62
5
10
-137.412160
20
515.627210
0
VERTEX
5
4eb
100
AcDbEntity
8
1
100
AcDbVertex
100
AcDb2dVertex
62
5
10
-137.412160
20
515.510023
0
VERTEX
5
4ec
100
AcDbEntity
8
1
100
AcDbVertex
100
AcDb2dVertex
62
5
10
-137.490285
20
515.392835
0
VERTEX
5
4ed
100
AcDbEntity
8
1
100
AcDbVertex
100
AcDb2dVertex
62
5
10
-137.607472
20
515.353773
0
VERTEX
5
4ee
100
AcDbEntity
8
1
100
AcDbVertex
100
AcDb2dVertex
62
5
10
-137.685597
20
515.353773
0
VERTEX
5
4ef
100
AcDbEntity
8
1
100
AcDbVertex
100
AcDb2dVertex
62
5
10
-137.802785
20
515.431898
0
VERTEX
5
4f0
100
AcDbEntity
8
1
100
AcDbVertex
100
AcDb2dVertex
62
5
10
-137.841847
20
515.588148
0
SEQEND
5
4f1
100
AcDbEntity
8
1
0
LINE
5
4f2
100
AcDbEntity
8
1
100
AcDbLine
6
CONTINUOUS
62
5
10
-138.427785
20
516.291273
11
-138.232472
21
515.783460
0
POLYLINE
5
4f3
100
AcDbEntity
8
1
6
CONTINUOUS
62
5
100
AcDb2dPolyline
66
1
10
0.0
20
0.0
30
0.0
70
0
0
VERTEX
5
4f4
100
AcDbEntity
8
1
100
AcDbVertex
100
AcDb2dVertex
62
5
10
-138.037160
20
516.291273
0
VERTEX
5
4f5
100
AcDbEntity
8
1
100
AcDbVertex
100
AcDb2dVertex
62
5
10
-138.232472
20
515.783460
0
VERTEX
5
4f6
100
AcDbEntity
8
1
100
AcDbVertex
100
AcDb2dVertex
62
5
10
-138.232472
20
515.353773
0
SEQEND
5
4f7
100
AcDbEntity
8
1
0
POLYLINE
5
4f8
100
AcDbEntity
8
1
6
CONTINUOUS
62
5
100
AcDb2dPolyline
66
1
10
0.0
20
0.0
30
0.0
70
0
0
VERTEX
5
4f9
100
AcDbEntity
8
1
100
AcDbVertex
100
AcDb2dVertex
62
5
10
-138.662160
20
516.095960
0
VERTEX
5
4fa
100
AcDbEntity
8
1
100
AcDbVertex
100
AcDb2dVertex
62
5
10
-138.740285
20
516.252210
0
VERTEX
5
4fb
100
AcDbEntity
8
1
100
AcDbVertex
100
AcDb2dVertex
62
5
10
-138.857472
20
516.291273
0
VERTEX
5
4fc
100
AcDbEntity
8
1
100
AcDbVertex
100
AcDb2dVertex
62
5
10
-138.935597
20
516.291273
0
VERTEX
5
4fd
100
AcDbEntity
8
1
100
AcDbVertex
100
AcDb2dVertex
62
5
10
-139.013722
20
516.252210
0
VERTEX
5
4fe
100
AcDbEntity
8
1
100
AcDbVertex
100
AcDb2dVertex
62
5
10
-139.091847
20
516.135023
0
VERTEX
5
4ff
100
AcDbEntity
8
1
100
AcDbVertex
100
AcDb2dVertex
62
5
10
-139.091847
20
516.017835
0
VERTEX
5
500
100
AcDbEntity
8
1
100
AcDbVertex
100
AcDb2dVertex
62
5
10
-139.013722
20
515.900648
0
VERTEX
5
501
100
AcDbEntity
8
1
100
AcDbVertex
100
AcDb2dVertex
62
5
10
-138.740285
20
515.744398
0
VERTEX
5
502
100
AcDbEntity
8
1
100
AcDbVertex
100
AcDb2dVertex
62
5
10
-138.662160
20
515.627210
0
VERTEX
5
503
100
AcDbEntity
8
1
100
AcDbVertex
100
AcDb2dVertex
62
5
10
-138.662160
20
515.510023
0
VERTEX
5
504
100
AcDbEntity
8
1
100
AcDbVertex
100
AcDb2dVertex
62
5
10
-138.740285
20
515.392835
0
VERTEX
5
505
100
AcDbEntity
8
1
100
AcDbVertex
100
AcDb2dVertex
62
5
10
-138.857472
20
515.353773
0
VERTEX
5
506
100
AcDbEntity
8
1
100
AcDbVertex
100
AcDb2dVertex
62
5
10
-138.935597
20
515.353773
0
VERTEX
5
507
100
AcDbEntity
8
1
100
AcDbVertex
100
AcDb2dVertex
62
5
10
-139.052785
20
515.431898
0
VERTEX
5
508
100
AcDbEntity
8
1
100
AcDbVertex
100
AcDb2dVertex
62
5
10
-139.091847
20
515.588148
0
SEQEND
5
509
100
AcDbEntity
8
1
0
CIRCLE
5
50a
100
AcDbEntity
8
1
100
AcDbCircle
6
CONTINUOUS
62
5
10
-131.584035
20
513.410023
40
0.187500
0
CIRCLE
5
50b
100
AcDbEntity
8
1
100
AcDbCircle
6
DOT2
62
5
10
-131.584035
20
513.410023
40
0.312500
0
POLYLINE
5
50c
100
AcDbEntity
8
1
6
CONTINUOUS
62
5
100
AcDb2dPolyline
66
1
10
0.0
20
0.0
30
0.0
70
1
0
VERTEX
5
50d
100
AcDbEntity
8
1
100
AcDbVertex
100
AcDb2dVertex
62
5
10
-131.944879
20
514.035023
0
VERTEX
5
50e
100
AcDbEntity
8
1
100
AcDbVertex
100
AcDb2dVertex
62
5
10
-132.305723
20
513.410023
0
VERTEX
5
50f
100
AcDbEntity
8
1
100
AcDbVertex
100
AcDb2dVertex
62
5
10
-131.944879
20
512.785023
0
VERTEX
5
510
100
AcDbEntity
8
1
100
AcDbVertex
100
AcDb2dVertex
62
5
10
-131.223191
20
512.785023
0
VERTEX
5
511
100
AcDbEntity
8
1
100
AcDbVertex
100
AcDb2dVertex
62
5
10
-130.862347
20
513.410023
0
VERTEX
5
512
100
AcDbEntity
8
1
100
AcDbVertex
100
AcDb2dVertex
62
5
10
-131.223191
20
514.035023
0
SEQEND
5
513
100
AcDbEntity
8
1
0
ARC
5
514
100
AcDbEntity
8
1
100
AcDbCircle
6
CONTINUOUS
62
5
10
-127.771535
20
514.410023
40
0.500000
100
AcDbArc
50
89.999999
51
179.999998
0
POLYLINE
5
515
100
AcDbEntity
8
1
6
CONTINUOUS
62
5
100
AcDb2dPolyline
66
1
10
0.0
20
0.0
30
0.0
70
0
0
VERTEX
5
516
100
AcDbEntity
8
1
100
AcDbVertex
100
AcDb2dVertex
62
5
10
-128.271535
20
514.410023
0
VERTEX
5
517
100
AcDbEntity
8
1
100
AcDbVertex
100
AcDb2dVertex
62
5
10
-128.271535
20
513.810023
0
VERTEX
5
518
100
AcDbEntity
8
1
100
AcDbVertex
100
AcDb2dVertex
62
5
10
-128.404537
20
513.810023
0
SEQEND
5
519
100
AcDbEntity
8
1
0
POLYLINE
5
51a
100
AcDbEntity
8
1
6
CONTINUOUS
62
5
100
AcDb2dPolyline
66
1
10
0.0
20
0.0
30
0.0
70
0
0
VERTEX
5
51b
100
AcDbEntity
8
1
100
AcDbVertex
100
AcDb2dVertex
62
5
10
-123.138533
20
513.810023
0
VERTEX
5
51c
100
AcDbEntity
8
1
100
AcDbVertex
100
AcDb2dVertex
62
5
10
-123.271535
20
513.810023
0
VERTEX
5
51d
100
AcDbEntity
8
1
100
AcDbVertex
100
AcDb2dVertex
62
5
10
-123.271535
20
514.410023
0
SEQEND
5
51e
100
AcDbEntity
8
1
0
ARC
5
51f
100
AcDbEntity
8
1
100
AcDbCircle
6
CONTINUOUS
62
5
10
-123.771535
20
514.410023
40
0.500000
100
AcDbArc
50
0.000000
51
89.999999
0
LINE
5
520
100
AcDbEntity
8
1
100
AcDbLine
6
CONTINUOUS
62
5
10
-123.771535
20
514.910023
11
-127.771535
21
514.910023
0
ARC
5
521
100
AcDbEntity
8
1
100
AcDbCircle
6
CONTINUOUS
62
5
10
-123.771535
20
512.410023
40
0.500000
100
AcDbArc
50
-89.999999
51
0.000000
0
POLYLINE
5
522
100
AcDbEntity
8
1
6
CONTINUOUS
62
5
100
AcDb2dPolyline
66
1
10
0.0
20
0.0
30
0.0
70
0
0
VERTEX
5
523
100
AcDbEntity
8
1
100
AcDbVertex
100
AcDb2dVertex
62
5
10
-123.271535
20
512.410023
0
VERTEX
5
524
100
AcDbEntity
8
1
100
AcDbVertex
100
AcDb2dVertex
62
5
10
-123.271535
20
513.010023
0
VERTEX
5
525
100
AcDbEntity
8
1
100
AcDbVertex
100
AcDb2dVertex
62
5
10
-123.138533
20
513.010023
0
SEQEND
5
526
100
AcDbEntity
8
1
0
POLYLINE
5
527
100
AcDbEntity
8
1
6
CONTINUOUS
62
5
100
AcDb2dPolyline
66
1
10
0.0
20
0.0
30
0.0
70
0
0
VERTEX
5
528
100
AcDbEntity
8
1
100
AcDbVertex
100
AcDb2dVertex
62
5
10
-128.404537
20
513.010023
0
VERTEX
5
529
100
AcDbEntity
8
1
100
AcDbVertex
100
AcDb2dVertex
62
5
10
-128.271535
20
513.010023
0
VERTEX
5
52a
100
AcDbEntity
8
1
100
AcDbVertex
100
AcDb2dVertex
62
5
10
-128.271535
20
512.410023
0
SEQEND
5
52b
100
AcDbEntity
8
1
0
ARC
5
52c
100
AcDbEntity
8
1
100
AcDbCircle
6
CONTINUOUS
62
5
10
-127.771535
20
512.410023
40
0.500000
100
AcDbArc
50
179.999998
51
-89.999999
0
LINE
5
52d
100
AcDbEntity
8
1
100
AcDbLine
6
CONTINUOUS
62
5
10
-127.771535
20
511.910023
11
-123.771535
21
511.910023
0
CIRCLE
5
52e
100
AcDbEntity
8
1
100
AcDbCircle
6
CONTINUOUS
62
5
10
-122.647785
20
513.410023
40
0.187500
0
CIRCLE
5
52f
100
AcDbEntity
8
1
100
AcDbCircle
6
DOT2
62
5
10
-122.647785
20
513.410023
40
0.312500
0
POLYLINE
5
530
100
AcDbEntity
8
1
6
CONTINUOUS
62
5
100
AcDb2dPolyline
66
1
10
0.0
20
0.0
30
0.0
70
1
0
VERTEX
5
531
100
AcDbEntity
8
1
100
AcDbVertex
100
AcDb2dVertex
62
5
10
-123.008629
20
514.035023
0
VERTEX
5
532
100
AcDbEntity
8
1
100
AcDbVertex
100
AcDb2dVertex
62
5
10
-123.369473
20
513.410023
0
VERTEX
5
533
100
AcDbEntity
8
1
100
AcDbVertex
100
AcDb2dVertex
62
5
10
-123.008629
20
512.785023
0
VERTEX
5
534
100
AcDbEntity
8
1
100
AcDbVertex
100
AcDb2dVertex
62
5
10
-122.286941
20
512.785023
0
VERTEX
5
535
100
AcDbEntity
8
1
100
AcDbVertex
100
AcDb2dVertex
62
5
10
-121.926097
20
513.410023
0
VERTEX
5
536
100
AcDbEntity
8
1
100
AcDbVertex
100
AcDb2dVertex
62
5
10
-122.286941
20
514.035023
0
SEQEND
5
537
100
AcDbEntity
8
1
0
LINE
5
538
100
AcDbEntity
8
1
100
AcDbLine
6
CONTINUOUS
62
5
10
-111.897211
20
460.562858
11
-111.897683
21
460.562858
0
LINE
5
539
100
AcDbEntity
8
1
100
AcDbLine
6
DOT2
62
5
10
-107.909069
20
462.187858
11
-109.571535
21
462.187858
0
POLYLINE
5
53a
100
AcDbEntity
8
1
6
CONTINUOUS
62
5
100
AcDb2dPolyline
66
1
10
0.0
20
0.0
30
0.0
70
1
0
VERTEX
5
53b
100
AcDbEntity
8
1
100
AcDbVertex
100
AcDb2dVertex
62
5
10
-115.821535
20
468.312858
0
VERTEX
5
53c
100
AcDbEntity
8
1
100
AcDbVertex
100
AcDb2dVertex
62
5
10
-113.471535
20
468.312858
0
VERTEX
5
53d
100
AcDbEntity
8
1
100
AcDbVertex
100
AcDb2dVertex
62
5
10
-113.471535
20
468.412858
0
VERTEX
5
53e
100
AcDbEntity
8
1
100
AcDbVertex
100
AcDb2dVertex
62
5
10
-115.821535
20
468.412858
0
SEQEND
5
53f
100
AcDbEntity
8
1
0
ARC
5
540
100
AcDbEntity
8
1
100
AcDbCircle
6
CONTINUOUS
62
5
10
-114.646535
20
467.360477
40
1.577381
100
AcDbArc
50
41.849003
51
138.150995
0
LINE
5
541
100
AcDbEntity
8
1
100
AcDbLine
6
CONTINUOUS
62
5
10
-106.224660
20
515.878773
11
-105.990285
21
515.878773
0
LINE
5
542
100
AcDbEntity
8
1
100
AcDbLine
6
CONTINUOUS
62
5
10
-106.107472
20
515.878773
11
-106.107472
21
514.941273
0
LINE
5
543
100
AcDbEntity
8
1
100
AcDbLine
6
CONTINUOUS
62
5
10
-106.224660
20
514.941273
11
-105.990285
21
514.941273
0
POLYLINE
5
544
100
AcDbEntity
8
1
6
CONTINUOUS
62
5
100
AcDb2dPolyline
66
1
10
0.0
20
0.0
30
0.0
70
0
0
VERTEX
5
545
100
AcDbEntity
8
1
100
AcDbVertex
100
AcDb2dVertex
62
5
10
-105.677785
20
514.941273
0
VERTEX
5
546
100
AcDbEntity
8
1
100
AcDbVertex
100
AcDb2dVertex
62
5
10
-105.677785
20
515.878773
0
VERTEX
5
547
100
AcDbEntity
8
1
100
AcDbVertex
100
AcDb2dVertex
62
5
10
-105.287160
20
514.941273
0
VERTEX
5
548
100
AcDbEntity
8
1
100
AcDbVertex
100
AcDb2dVertex
62
5
10
-105.287160
20
515.878773
0
SEQEND
5
549
100
AcDbEntity
8
1
0
CIRCLE
5
54a
100
AcDbEntity
8
1
100
AcDbCircle
6
CONTINUOUS
62
5
10
-130.646535
20
520.191273
40
0.787500
0
LINE
5
54b
100
AcDbEntity
8
1
100
AcDbLine
6
CONTINUOUS
62
5
10
-130.089688
20
520.748120
11
-131.203381
21
519.634426
0
LINE
5
54c
100
AcDbEntity
8
1
100
AcDbLine
6
CONTINUOUS
62
5
10
-130.328337
20
519.873075
11
-130.964733
21
520.509471
0
CIRCLE
5
54d
100
AcDbEntity
8
1
100
AcDbCircle
6
CONTINUOUS
62
5
10
-133.396535
20
520.191273
40
0.787500
0
LINE
5
54e
100
AcDbEntity
8
1
100
AcDbLine
6
CONTINUOUS
62
5
10
-132.839688
20
520.748120
11
-133.953381
21
519.634426
0
LINE
5
54f
100
AcDbEntity
8
1
100
AcDbLine
6
CONTINUOUS
62
5
10
-133.078337
20
519.873075
11
-133.714733
21
520.509471
0
POLYLINE
5
550
100
AcDbEntity
8
1
6
CONTINUOUS
62
5
100
AcDb2dPolyline
66
1
10
0.0
20
0.0
30
0.0
70
1
0
VERTEX
5
551
100
AcDbEntity
8
1
100
AcDbVertex
100
AcDb2dVertex
62
5
10
-135.877379
20
520.810023
0
VERTEX
5
552
100
AcDbEntity
8
1
100
AcDbVertex
100
AcDb2dVertex
62
5
10
-136.238223
20
520.185023
0
VERTEX
5
553
100
AcDbEntity
8
1
100
AcDbVertex
100
AcDb2dVertex
62
5
10
-135.877379
20
519.560023
0
VERTEX
5
554
100
AcDbEntity
8
1
100
AcDbVertex
100
AcDb2dVertex
62
5
10
-135.155691
20
519.560023
0
VERTEX
5
555
100
AcDbEntity
8
1
100
AcDbVertex
100
AcDb2dVertex
62
5
10
-134.794847
20
520.185023
0
VERTEX
5
556
100
AcDbEntity
8
1
100
AcDbVertex
100
AcDb2dVertex
62
5
10
-135.155691
20
520.810023
0
SEQEND
5
557
100
AcDbEntity
8
1
0
POLYLINE
5
558
100
AcDbEntity
8
1
6
CONTINUOUS
62
5
100
AcDb2dPolyline
66
1
10
0.0
20
0.0
30
0.0
70
1
0
VERTEX
5
559
100
AcDbEntity
8
1
100
AcDbVertex
100
AcDb2dVertex
62
5
10
-121.959035
20
518.066273
0
VERTEX
5
55a
100
AcDbEntity
8
1
100
AcDbVertex
100
AcDb2dVertex
62
5
10
-121.959035
20
521.341273
0
VERTEX
5
55b
100
AcDbEntity
8
1
100
AcDbVertex
100
AcDb2dVertex
62
5
10
-129.334035
20
521.341273
0
VERTEX
5
55c
100
AcDbEntity
8
1
100
AcDbVertex
100
AcDb2dVertex
62
5
10
-129.334035
20
518.066273
0
SEQEND
5
55d
100
AcDbEntity
8
1
0
ARC
5
55e
100
AcDbEntity
8
1
100
AcDbCircle
6
CONTINUOUS
62
5
10
-128.644660
20
519.816273
40
0.350000
100
AcDbArc
50
89.999999
51
-89.999999
0
POLYLINE
5
55f
100
AcDbEntity
8
1
6
CONTINUOUS
62
5
100
AcDb2dPolyline
66
1
10
0.0
20
0.0
30
0.0
70
0
0
VERTEX
5
560
100
AcDbEntity
8
1
100
AcDbVertex
100
AcDb2dVertex
62
5
10
-128.644660
20
520.166273
0
VERTEX
5
561
100
AcDbEntity
8
1
100
AcDbVertex
100
AcDb2dVertex
62
5
10
-128.271535
20
520.166273
0
VERTEX
5
562
100
AcDbEntity
8
1
100
AcDbVertex
100
AcDb2dVertex
62
5
10
-128.271535
20
520.891273
0
VERTEX
5
563
100
AcDbEntity
8
1
100
AcDbVertex
100
AcDb2dVertex
62
5
10
-123.021535
20
520.891273
0
VERTEX
5
564
100
AcDbEntity
8
1
100
AcDbVertex
100
AcDb2dVertex
62
5
10
-123.021535
20
520.166273
0
VERTEX
5
565
100
AcDbEntity
8
1
100
AcDbVertex
100
AcDb2dVertex
62
5
10
-122.644660
20
520.166273
0
SEQEND
5
566
100
AcDbEntity
8
1
0
ARC
5
567
100
AcDbEntity
8
1
100
AcDbCircle
6
CONTINUOUS
62
5
10
-122.644660
20
519.816273
40
0.350000
100
AcDbArc
50
-89.999999
51
89.999999
0
POLYLINE
5
568
100
AcDbEntity
8
1
6
CONTINUOUS
62
5
100
AcDb2dPolyline
66
1
10
0.0
20
0.0
30
0.0
70
0
0
VERTEX
5
569
100
AcDbEntity
8
1
100
AcDbVertex
100
AcDb2dVertex
62
5
10
-122.644660
20
519.466273
0
VERTEX
5
56a
100
AcDbEntity
8
1
100
AcDbVertex
100
AcDb2dVertex
62
5
10
-123.021535
20
519.466273
0
VERTEX
5
56b
100
AcDbEntity
8
1
100
AcDbVertex
100
AcDb2dVertex
62
5
10
-123.021535
20
518.616273
0
VERTEX
5
56c
100
AcDbEntity
8
1
100
AcDbVertex
100
AcDb2dVertex
62
5
10
-128.271535
20
518.616273
0
VERTEX
5
56d
100
AcDbEntity
8
1
100
AcDbVertex
100
AcDb2dVertex
62
5
10
-128.271535
20
519.466273
0
VERTEX
5
56e
100
AcDbEntity
8
1
100
AcDbVertex
100
AcDb2dVertex
62
5
10
-128.644660
20
519.466273
0
SEQEND
5
56f
100
AcDbEntity
8
1
0
ARC
5
570
100
AcDbEntity
8
1
100
AcDbCircle
6
CONTINUOUS
62
5
10
-126.630265
20
519.278773
40
0.250000
100
AcDbArc
50
-162.387421
51
-89.999999
0
LINE
5
571
100
AcDbEntity
8
1
100
AcDbLine
6
CONTINUOUS
62
5
10
-126.868546
20
519.203128
11
-127.209816
21
520.278128
0
ARC
5
572
100
AcDbEntity
8
1
100
AcDbCircle
6
CONTINUOUS
62
5
10
-126.971535
20
520.353773
40
0.250000
100
AcDbArc
50
89.999999
51
-162.387421
0
LINE
5
573
100
AcDbEntity
8
1
100
AcDbLine
6
CONTINUOUS
62
5
10
-126.971535
20
520.603773
11
-124.321535
21
520.603773
0
ARC
5
574
100
AcDbEntity
8
1
100
AcDbCircle
6
CONTINUOUS
62
5
10
-124.321535
20
520.353773
40
0.250000
100
AcDbArc
50
-17.612578
51
89.999999
0
LINE
5
575
100
AcDbEntity
8
1
100
AcDbLine
6
CONTINUOUS
62
5
10
-124.083254
20
520.278128
11
-124.424524
21
519.203128
0
ARC
5
576
100
AcDbEntity
8
1
100
AcDbCircle
6
CONTINUOUS
62
5
10
-124.662805
20
519.278773
40
0.250000
100
AcDbArc
50
-89.999999
51
-17.612578
0
LINE
5
577
100
AcDbEntity
8
1
100
AcDbLine
6
CONTINUOUS
62
5
10
-124.662805
20
519.028773
11
-126.630265
21
519.028773
0
POLYLINE
5
578
100
AcDbEntity
8
1
6
CONTINUOUS
62
5
100
AcDb2dPolyline
66
1
10
0.0
20
0.0
30
0.0
70
1
0
VERTEX
5
579
100
AcDbEntity
8
1
100
AcDbVertex
100
AcDb2dVertex
62
5
10
-121.959035
20
518.616273
0
VERTEX
5
57a
100
AcDbEntity
8
1
100
AcDbVertex
100
AcDb2dVertex
62
5
10
-121.959035
20
520.891273
0
VERTEX
5
57b
100
AcDbEntity
8
1
100
AcDbVertex
100
AcDb2dVertex
62
5
10
-129.334035
20
520.891273
0
VERTEX
5
57c
100
AcDbEntity
8
1
100
AcDbVertex
100
AcDb2dVertex
62
5
10
-129.334035
20
518.616273
0
SEQEND
5
57d
100
AcDbEntity
8
1
0
POLYLINE
5
57e
100
AcDbEntity
8
1
6
CONTINUOUS
62
5
100
AcDb2dPolyline
66
1
10
0.0
20
0.0
30
0.0
70
1
0
VERTEX
5
57f
100
AcDbEntity
8
1
100
AcDbVertex
100
AcDb2dVertex
62
5
10
-128.084035
20
520.216273
0
VERTEX
5
580
100
AcDbEntity
8
1
100
AcDbVertex
100
AcDb2dVertex
62
5
10
-128.084035
20
520.691273
0
VERTEX
5
581
100
AcDbEntity
8
1
100
AcDbVertex
100
AcDb2dVertex
62
5
10
-127.459035
20
520.691273
0
VERTEX
5
582
100
AcDbEntity
8
1
100
AcDbVertex
100
AcDb2dVertex
62
5
10
-127.459035
20
518.941273
0
VERTEX
5
583
100
AcDbEntity
8
1
100
AcDbVertex
100
AcDb2dVertex
62
5
10
-128.084035
20
518.941273
0
VERTEX
5
584
100
AcDbEntity
8
1
100
AcDbVertex
100
AcDb2dVertex
62
5
10
-128.084035
20
519.416273
0
VERTEX
5
585
100
AcDbEntity
8
1
100
AcDbVertex
100
AcDb2dVertex
62
5
10
-127.771535
20
519.416273
0
VERTEX
5
586
100
AcDbEntity
8
1
100
AcDbVertex
100
AcDb2dVertex
62
5
10
-127.771535
20
520.216273
0
SEQEND
5
587
100
AcDbEntity
8
1
0
POLYLINE
5
588
100
AcDbEntity
8
1
6
CONTINUOUS
62
5
100
AcDb2dPolyline
66
1
10
0.0
20
0.0
30
0.0
70
1
0
VERTEX
5
589
100
AcDbEntity
8
1
100
AcDbVertex
100
AcDb2dVertex
62
5
10
-123.209035
20
520.216273
0
VERTEX
5
58a
100
AcDbEntity
8
1
100
AcDbVertex
100
AcDb2dVertex
62
5
10
-123.209035
20
520.691273
0
VERTEX
5
58b
100
AcDbEntity
8
1
100
AcDbVertex
100
AcDb2dVertex
62
5
10
-123.834035
20
520.691273
0
VERTEX
5
58c
100
AcDbEntity
8
1
100
AcDbVertex
100
AcDb2dVertex
62
5
10
-123.834035
20
518.941273
0
VERTEX
5
58d
100
AcDbEntity
8
1
100
AcDbVertex
100
AcDb2dVertex
62
5
10
-123.209035
20
518.941273
0
VERTEX
5
58e
100
AcDbEntity
8
1
100
AcDbVertex
100
AcDb2dVertex
62
5
10
-123.209035
20
519.416273
0
VERTEX
5
58f
100
AcDbEntity
8
1
100
AcDbVertex
100
AcDb2dVertex
62
5
10
-123.521535
20
519.416273
0
VERTEX
5
590
100
AcDbEntity
8
1
100
AcDbVertex
100
AcDb2dVertex
62
5
10
-123.521535
20
520.216273
0
SEQEND
5
591
100
AcDbEntity
8
1
0
CIRCLE
5
592
100
AcDbEntity
8
1
100
AcDbCircle
6
CONTINUOUS
62
5
10
-128.601535
20
519.816273
40
0.187500
0
CIRCLE
5
593
100
AcDbEntity
8
1
100
AcDbCircle
6
DOT2
62
5
10
-128.601535
20
519.816273
40
0.312500
0
CIRCLE
5
594
100
AcDbEntity
8
1
100
AcDbCircle
6
CONTINUOUS
62
5
10
-122.691535
20
519.816273
40
0.187500
0
CIRCLE
5
595
100
AcDbEntity
8
1
100
AcDbCircle
6
DOT2
62
5
10
-122.691535
20
519.816273
40
0.312500
0
CIRCLE
5
596
100
AcDbEntity
8
1
100
AcDbCircle
6
CONTINUOUS
62
5
10
-120.646535
20
520.191273
40
0.787500
0
LINE
5
597
100
AcDbEntity
8
1
100
AcDbLine
6
CONTINUOUS
62
5
10
-120.089688
20
520.748120
11
-121.203381
21
519.634426
0
LINE
5
598
100
AcDbEntity
8
1
100
AcDbLine
6
CONTINUOUS
62
5
10
-120.328337
20
519.873075
11
-120.964733
21
520.509471
0
ARC
5
599
100
AcDbEntity
8
1
100
AcDbCircle
6
CONTINUOUS
62
5
10
-96.021535
20
529.691273
40
0.500000
100
AcDbArc
50
-0.000000
51
89.999999
0
LINE
5
59a
100
AcDbEntity
8
1
100
AcDbLine
6
CONTINUOUS
62
5
10
-96.021535
20
530.191273
11
-112.521535
21
530.191273
0
ARC
5
59b
100
AcDbEntity
8
1
100
AcDbCircle
6
CONTINUOUS
62
5
10
-112.521535
20
529.691273
40
0.500000
100
AcDbArc
50
89.999999
51
179.999998
0
LINE
5
59c
100
AcDbEntity
8
1
100
AcDbLine
6
CONTINUOUS
62
5
10
-113.021535
20
529.691273
11
-113.021535
21
511.441273
0
ARC
5
59d
100
AcDbEntity
8
1
100
AcDbCircle
6
CONTINUOUS
62
5
10
-112.521535
20
511.441273
40
0.500000
100
AcDbArc
50
179.999998
51
-89.999999
0
LINE
5
59e
100
AcDbEntity
8
1
100
AcDbLine
6
CONTINUOUS
62
5
10
-112.521535
20
510.941273
11
-96.021535
21
510.941273
0
ARC
5
59f
100
AcDbEntity
8
1
100
AcDbCircle
6
CONTINUOUS
62
5
10
-96.021535
20
511.441273
40
0.500000
100
AcDbArc
50
-89.999999
51
-0.000000
0
LINE
5
5a0
100
AcDbEntity
8
1
100
AcDbLine
6
CONTINUOUS
62
5
10
-95.521535
20
511.441273
11
-95.521535
21
529.691273
0
ARC
5
5a1
100
AcDbEntity
8
1
100
AcDbCircle
6
CONTINUOUS
62
5
10
-169.646535
20
554.988892
40
1.577381
100
AcDbArc
50
41.849003
51
138.150995
0
POLYLINE
5
5a2
100
AcDbEntity
8
1
6
CONTINUOUS
62
5
100
AcDb2dPolyline
66
1
10
0.0
20
0.0
30
0.0
70
1
0
VERTEX
5
5a3
100
AcDbEntity
8
1
100
AcDbVertex
100
AcDb2dVertex
62
5
10
-170.821535
20
555.941273
0
VERTEX
5
5a4
100
AcDbEntity
8
1
100
AcDbVertex
100
AcDb2dVertex
62
5
10
-168.471535
20
555.941273
0
VERTEX
5
5a5
100
AcDbEntity
8
1
100
AcDbVertex
100
AcDb2dVertex
62
5
10
-168.471535
20
556.041273
0
VERTEX
5
5a6
100
AcDbEntity
8
1
100
AcDbVertex
100
AcDb2dVertex
62
5
10
-170.821535
20
556.041273
0
SEQEND
5
5a7
100
AcDbEntity
8
1
0
POLYLINE
5
5a8
100
AcDbEntity
8
1
6
CONTINUOUS
62
5
100
AcDb2dPolyline
66
1
10
0.0
20
0.0
30
0.0
70
0
0
VERTEX
5
5a9
100
AcDbEntity
8
1
100
AcDbVertex
100
AcDb2dVertex
62
5
10
-140.927785
20
529.316273
0
VERTEX
5
5aa
100
AcDbEntity
8
1
100
AcDbVertex
100
AcDb2dVertex
62
5
10
-140.927785
20
528.574085
0
VERTEX
5
5ab
100
AcDbEntity
8
1
100
AcDbVertex
100
AcDb2dVertex
62
5
10
-140.888722
20
528.456898
0
VERTEX
5
5ac
100
AcDbEntity
8
1
100
AcDbVertex
100
AcDb2dVertex
62
5
10
-140.849660
20
528.417835
0
VERTEX
5
5ad
100
AcDbEntity
8
1
100
AcDbVertex
100
AcDb2dVertex
62
5
10
-140.771535
20
528.378773
0
VERTEX
5
5ae
100
AcDbEntity
8
1
100
AcDbVertex
100
AcDb2dVertex
62
5
10
-140.693410
20
528.378773
0
VERTEX
5
5af
100
AcDbEntity
8
1
100
AcDbVertex
100
AcDb2dVertex
62
5
10
-140.615285
20
528.417835
0
VERTEX
5
5b0
100
AcDbEntity
8
1
100
AcDbVertex
100
AcDb2dVertex
62
5
10
-140.576222
20
528.456898
0
VERTEX
5
5b1
100
AcDbEntity
8
1
100
AcDbVertex
100
AcDb2dVertex
62
5
10
-140.537160
20
528.574085
0
VERTEX
5
5b2
100
AcDbEntity
8
1
100
AcDbVertex
100
AcDb2dVertex
62
5
10
-140.537160
20
529.316273
0
SEQEND
5
5b3
100
AcDbEntity
8
1
0
LINE
5
5b4
100
AcDbEntity
8
1
100
AcDbLine
6
CONTINUOUS
62
5
10
-141.552785
20
529.316273
11
-141.552785
21
528.378773
0
POLYLINE
5
5b5
100
AcDbEntity
8
1
6
CONTINUOUS
62
5
100
AcDb2dPolyline
66
1
10
0.0
20
0.0
30
0.0
70
0
0
VERTEX
5
5b6
100
AcDbEntity
8
1
100
AcDbVertex
100
AcDb2dVertex
62
5
10
-141.552785
20
529.316273
0
VERTEX
5
5b7
100
AcDbEntity
8
1
100
AcDbVertex
100
AcDb2dVertex
62
5
10
-141.396535
20
529.316273
0
VERTEX
5
5b8
100
AcDbEntity
8
1
100
AcDbVertex
100
AcDb2dVertex
62
5
10
-141.279347
20
529.277210
0
VERTEX
5
5b9
100
AcDbEntity
8
1
100
AcDbVertex
100
AcDb2dVertex
62
5
10
-141.201222
20
529.199085
0
VERTEX
5
5ba
100
AcDbEntity
8
1
100
AcDbVertex
100
AcDb2dVertex
62
5
10
-141.162160
20
529.120960
0
VERTEX
5
5bb
100
AcDbEntity
8
1
100
AcDbVertex
100
AcDb2dVertex
62
5
10
-141.162160
20
529.003773
0
VERTEX
5
5bc
100
AcDbEntity
8
1
100
AcDbVertex
100
AcDb2dVertex
62
5
10
-141.201222
20
528.925648
0
VERTEX
5
5bd
100
AcDbEntity
8
1
100
AcDbVertex
100
AcDb2dVertex
62
5
10
-141.279347
20
528.847523
0
VERTEX
5
5be
100
AcDbEntity
8
1
100
AcDbVertex
100
AcDb2dVertex
62
5
10
-141.396535
20
528.808460
0
VERTEX
5
5bf
100
AcDbEntity
8
1
100
AcDbVertex
100
AcDb2dVertex
62
5
10
-141.552785
20
528.808460
0
SEQEND
5
5c0
100
AcDbEntity
8
1
0
LINE
5
5c1
100
AcDbEntity
8
1
100
AcDbLine
6
CONTINUOUS
62
5
10
-142.177785
20
529.316273
11
-141.787160
21
529.316273
0
LINE
5
5c2
100
AcDbEntity
8
1
100
AcDbLine
6
CONTINUOUS
62
5
10
-141.982472
20
529.316273
11
-141.982472
21
528.378773
0
LINE
5
5c3
100
AcDbEntity
8
1
100
AcDbLine
6
CONTINUOUS
62
5
10
-140.927785
20
523.222523
11
-140.537160
21
523.222523
0
POLYLINE
5
5c4
100
AcDbEntity
8
1
6
CONTINUOUS
62
5
100
AcDb2dPolyline
66
1
10
0.0
20
0.0
30
0.0
70
1
0
VERTEX
5
5c5
100
AcDbEntity
8
1
100
AcDbVertex
100
AcDb2dVertex
62
5
10
-141.396535
20
523.691273
0
VERTEX
5
5c6
100
AcDbEntity
8
1
100
AcDbVertex
100
AcDb2dVertex
62
5
10
-141.318410
20
523.691273
0
VERTEX
5
5c7
100
AcDbEntity
8
1
100
AcDbVertex
100
AcDb2dVertex
62
5
10
-141.240285
20
523.652210
0
VERTEX
5
5c8
100
AcDbEntity
8
1
100
AcDbVertex
100
AcDb2dVertex
62
5
10
-141.201222
20
523.613148
0
VERTEX
5
5c9
100
AcDbEntity
8
1
100
AcDbVertex
100
AcDb2dVertex
62
5
10
-141.162160
20
523.456898
0
VERTEX
5
5ca
100
AcDbEntity
8
1
100
AcDbVertex
100
AcDb2dVertex
62
5
10
-141.162160
20
522.988148
0
VERTEX
5
5cb
100
AcDbEntity
8
1
100
AcDbVertex
100
AcDb2dVertex
62
5
10
-141.201222
20
522.831898
0
VERTEX
5
5cc
100
AcDbEntity
8
1
100
AcDbVertex
100
AcDb2dVertex
62
5
10
-141.240285
20
522.792835
0
VERTEX
5
5cd
100
AcDbEntity
8
1
100
AcDbVertex
100
AcDb2dVertex
62
5
10
-141.318410
20
522.753773
0
VERTEX
5
5ce
100
AcDbEntity
8
1
100
AcDbVertex
100
AcDb2dVertex
62
5
10
-141.396535
20
522.753773
0
VERTEX
5
5cf
100
AcDbEntity
8
1
100
AcDbVertex
100
AcDb2dVertex
62
5
10
-141.474660
20
522.792835
0
VERTEX
5
5d0
100
AcDbEntity
8
1
100
AcDbVertex
100
AcDb2dVertex
62
5
10
-141.513722
20
522.831898
0
VERTEX
5
5d1
100
AcDbEntity
8
1
100
AcDbVertex
100
AcDb2dVertex
62
5
10
-141.552785
20
522.988148
0
VERTEX
5
5d2
100
AcDbEntity
8
1
100
AcDbVertex
100
AcDb2dVertex
62
5
10
-141.552785
20
523.456898
0
VERTEX
5
5d3
100
AcDbEntity
8
1
100
AcDbVertex
100
AcDb2dVertex
62
5
10
-141.513722
20
523.613148
0
VERTEX
5
5d4
100
AcDbEntity
8
1
100
AcDbVertex
100
AcDb2dVertex
62
5
10
-141.474660
20
523.652210
0
VERTEX
5
5d5
100
AcDbEntity
8
1
100
AcDbVertex
100
AcDb2dVertex
62
5
10
-141.396535
20
523.691273
0
SEQEND
5
5d6
100
AcDbEntity
8
1
0
LINE
5
5d7
100
AcDbEntity
8
1
100
AcDbLine
6
CONTINUOUS
62
5
10
-142.724660
20
523.691273
11
-142.490285
21
523.691273
0
LINE
5
5d8
100
AcDbEntity
8
1
100
AcDbLine
6
CONTINUOUS
62
5
10
-142.607472
20
523.691273
11
-142.607472
21
522.753773
0
LINE
5
5d9
100
AcDbEntity
8
1
100
AcDbLine
6
CONTINUOUS
62
5
10
-142.724660
20
522.753773
11
-142.490285
21
522.753773
0
LINE
5
5da
100
AcDbEntity
8
1
100
AcDbLine
6
CONTINUOUS
62
5
10
-141.787160
20
523.730335
11
-142.177785
21
522.714710
0
CIRCLE
5
5db
100
AcDbEntity
8
1
100
AcDbCircle
6
CONTINUOUS
62
5
10
-147.276535
20
526.441273
40
0.195000
0
CIRCLE
5
5dc
100
AcDbEntity
8
1
100
AcDbCircle
6
CONTINUOUS
62
5
10
-147.276535
20
520.185023
40
0.187500
0
CIRCLE
5
5dd
100
AcDbEntity
8
1
100
AcDbCircle
6
DOT2
62
5
10
-147.276535
20
526.441273
40
0.325000
0
CIRCLE
5
5de
100
AcDbEntity
8
1
100
AcDbCircle
6
DOT2
62
5
10
-147.276535
20
520.185023
40
0.312500
0
POLYLINE
5
5df
100
AcDbEntity
8
1
6
CONTINUOUS
62
5
100
AcDb2dPolyline
66
1
10
0.0
20
0.0
30
0.0
70
1
0
VERTEX
5
5e0
100
AcDbEntity
8
1
100
AcDbVertex
100
AcDb2dVertex
62
5
10
-146.651535
20
526.802117
0
VERTEX
5
5e1
100
AcDbEntity
8
1
100
AcDbVertex
100
AcDb2dVertex
62
5
10
-147.276535
20
527.162961
0
VERTEX
5
5e2
100
AcDbEntity
8
1
100
AcDbVertex
100
AcDb2dVertex
62
5
10
-147.901535
20
526.802117
0
VERTEX
5
5e3
100
AcDbEntity
8
1
100
AcDbVertex
100
AcDb2dVertex
62
5
10
-147.901535
20
526.080429
0
VERTEX
5
5e4
100
AcDbEntity
8
1
100
AcDbVertex
100
AcDb2dVertex
62
5
10
-147.276535
20
525.719585
0
VERTEX
5
5e5
100
AcDbEntity
8
1
100
AcDbVertex
100
AcDb2dVertex
62
5
10
-146.651535
20
526.080429
0
SEQEND
5
5e6
100
AcDbEntity
8
1
0
LINE
5
5e7
100
AcDbEntity
8
1
100
AcDbLine
6
CONTINUOUS
62
5
10
-159.115285
20
540.441273
11
-159.115285
21
539.503773
0
POLYLINE
5
5e8
100
AcDbEntity
8
1
6
CONTINUOUS
62
5
100
AcDb2dPolyline
66
1
10
0.0
20
0.0
30
0.0
70
0
0
VERTEX
5
5e9
100
AcDbEntity
8
1
100
AcDbVertex
100
AcDb2dVertex
62
5
10
-159.115285
20
540.441273
0
VERTEX
5
5ea
100
AcDbEntity
8
1
100
AcDbVertex
100
AcDb2dVertex
62
5
10
-158.919972
20
540.441273
0
VERTEX
5
5eb
100
AcDbEntity
8
1
100
AcDbVertex
100
AcDb2dVertex
62
5
10
-158.841847
20
540.402210
0
VERTEX
5
5ec
100
AcDbEntity
8
1
100
AcDbVertex
100
AcDb2dVertex
62
5
10
-158.763722
20
540.324085
0
VERTEX
5
5ed
100
AcDbEntity
8
1
100
AcDbVertex
100
AcDb2dVertex
62
5
10
-158.724660
20
540.167835
0
VERTEX
5
5ee
100
AcDbEntity
8
1
100
AcDbVertex
100
AcDb2dVertex
62
5
10
-158.724660
20
539.777210
0
VERTEX
5
5ef
100
AcDbEntity
8
1
100
AcDbVertex
100
AcDb2dVertex
62
5
10
-158.763722
20
539.620960
0
VERTEX
5
5f0
100
AcDbEntity
8
1
100
AcDbVertex
100
AcDb2dVertex
62
5
10
-158.841847
20
539.542835
0
VERTEX
5
5f1
100
AcDbEntity
8
1
100
AcDbVertex
100
AcDb2dVertex
62
5
10
-158.919972
20
539.503773
0
VERTEX
5
5f2
100
AcDbEntity
8
1
100
AcDbVertex
100
AcDb2dVertex
62
5
10
-159.115285
20
539.503773
0
SEQEND
5
5f3
100
AcDbEntity
8
1
0
POLYLINE
5
5f4
100
AcDbEntity
8
1
6
CONTINUOUS
62
5
100
AcDb2dPolyline
66
1
10
0.0
20
0.0
30
0.0
70
0
0
VERTEX
5
5f5
100
AcDbEntity
8
1
100
AcDbVertex
100
AcDb2dVertex
62
5
10
-158.099660
20
540.245960
0
VERTEX
5
5f6
100
AcDbEntity
8
1
100
AcDbVertex
100
AcDb2dVertex
62
5
10
-158.138722
20
540.363148
0
VERTEX
5
5f7
100
AcDbEntity
8
1
100
AcDbVertex
100
AcDb2dVertex
62
5
10
-158.216847
20
540.441273
0
VERTEX
5
5f8
100
AcDbEntity
8
1
100
AcDbVertex
100
AcDb2dVertex
62
5
10
-158.334035
20
540.441273
0
VERTEX
5
5f9
100
AcDbEntity
8
1
100
AcDbVertex
100
AcDb2dVertex
62
5
10
-158.451222
20
540.324085
0
VERTEX
5
5fa
100
AcDbEntity
8
1
100
AcDbVertex
100
AcDb2dVertex
62
5
10
-158.490285
20
540.128773
0
VERTEX
5
5fb
100
AcDbEntity
8
1
100
AcDbVertex
100
AcDb2dVertex
62
5
10
-158.490285
20
539.816273
0
VERTEX
5
5fc
100
AcDbEntity
8
1
100
AcDbVertex
100
AcDb2dVertex
62
5
10
-158.451222
20
539.620960
0
VERTEX
5
5fd
100
AcDbEntity
8
1
100
AcDbVertex
100
AcDb2dVertex
62
5
10
-158.334035
20
539.503773
0
VERTEX
5
5fe
100
AcDbEntity
8
1
100
AcDbVertex
100
AcDb2dVertex
62
5
10
-158.216847
20
539.503773
0
VERTEX
5
5ff
100
AcDbEntity
8
1
100
AcDbVertex
100
AcDb2dVertex
62
5
10
-158.138722
20
539.581898
0
VERTEX
5
600
100
AcDbEntity
8
1
100
AcDbVertex
100
AcDb2dVertex
62
5
10
-158.060597
20
539.777210
0
SEQEND
5
601
100
AcDbEntity
8
1
0
POLYLINE
5
602
100
AcDbEntity
8
1
6
CONTINUOUS
62
5
100
AcDb2dPolyline
66
1
10
0.0
20
0.0
30
0.0
70
0
0
VERTEX
5
603
100
AcDbEntity
8
1
100
AcDbVertex
100
AcDb2dVertex
62
5
10
-160.990285
20
540.441273
0
VERTEX
5
604
100
AcDbEntity
8
1
100
AcDbVertex
100
AcDb2dVertex
62
5
10
-160.990285
20
539.503773
0
VERTEX
5
605
100
AcDbEntity
8
1
100
AcDbVertex
100
AcDb2dVertex
62
5
10
-160.599660
20
539.503773
0
SEQEND
5
606
100
AcDbEntity
8
1
0
POLYLINE
5
607
100
AcDbEntity
8
1
6
CONTINUOUS
62
5
100
AcDb2dPolyline
66
1
10
0.0
20
0.0
30
0.0
70
1
0
VERTEX
5
608
100
AcDbEntity
8
1
100
AcDbVertex
100
AcDb2dVertex
62
5
10
-160.209035
20
540.441273
0
VERTEX
5
609
100
AcDbEntity
8
1
100
AcDbVertex
100
AcDb2dVertex
62
5
10
-160.130910
20
540.441273
0
VERTEX
5
60a
100
AcDbEntity
8
1
100
AcDbVertex
100
AcDb2dVertex
62
5
10
-160.052785
20
540.402210
0
VERTEX
5
60b
100
AcDbEntity
8
1
100
AcDbVertex
100
AcDb2dVertex
62
5
10
-160.013722
20
540.363148
0
VERTEX
5
60c
100
AcDbEntity
8
1
100
AcDbVertex
100
AcDb2dVertex
62
5
10
-159.974660
20
540.206898
0
VERTEX
5
60d
100
AcDbEntity
8
1
100
AcDbVertex
100
AcDb2dVertex
62
5
10
-159.974660
20
539.738148
0
VERTEX
5
60e
100
AcDbEntity
8
1
100
AcDbVertex
100
AcDb2dVertex
62
5
10
-160.013722
20
539.581898
0
VERTEX
5
60f
100
AcDbEntity
8
1
100
AcDbVertex
100
AcDb2dVertex
62
5
10
-160.052785
20
539.542835
0
VERTEX
5
610
100
AcDbEntity
8
1
100
AcDbVertex
100
AcDb2dVertex
62
5
10
-160.130910
20
539.503773
0
VERTEX
5
611
100
AcDbEntity
8
1
100
AcDbVertex
100
AcDb2dVertex
62
5
10
-160.209035
20
539.503773
0
VERTEX
5
612
100
AcDbEntity
8
1
100
AcDbVertex
100
AcDb2dVertex
62
5
10
-160.287160
20
539.542835
0
VERTEX
5
613
100
AcDbEntity
8
1
100
AcDbVertex
100
AcDb2dVertex
62
5
10
-160.326222
20
539.581898
0
VERTEX
5
614
100
AcDbEntity
8
1
100
AcDbVertex
100
AcDb2dVertex
62
5
10
-160.365285
20
539.738148
0
VERTEX
5
615
100
AcDbEntity
8
1
100
AcDbVertex
100
AcDb2dVertex
62
5
10
-160.365285
20
540.206898
0
VERTEX
5
616
100
AcDbEntity
8
1
100
AcDbVertex
100
AcDb2dVertex
62
5
10
-160.326222
20
540.363148
0
VERTEX
5
617
100
AcDbEntity
8
1
100
AcDbVertex
100
AcDb2dVertex
62
5
10
-160.287160
20
540.402210
0
VERTEX
5
618
100
AcDbEntity
8
1
100
AcDbVertex
100
AcDb2dVertex
62
5
10
-160.209035
20
540.441273
0
SEQEND
5
619
100
AcDbEntity
8
1
0
CIRCLE
5
61a
100
AcDbEntity
8
1
100
AcDbCircle
6
CONTINUOUS
62
5
10
-160.646535
20
538.441273
40
0.662500
0
LINE
5
61b
100
AcDbEntity
8
1
100
AcDbLine
6
CONTINUOUS
62
5
10
-160.178077
20
538.909731
11
-161.114993
21
537.972815
0
LINE
5
61c
100
AcDbEntity
8
1
100
AcDbLine
6
CONTINUOUS
62
5
10
-160.425564
20
538.220302
11
-160.867506
21
538.662244
0
POLYLINE
5
61d
100
AcDbEntity
8
1
6
CONTINUOUS
62
5
100
AcDb2dPolyline
66
1
10
0.0
20
0.0
30
0.0
70
0
0
VERTEX
5
61e
100
AcDbEntity
8
1
100
AcDbVertex
100
AcDb2dVertex
62
5
10
-159.740285
20
539.503773
0
VERTEX
5
61f
100
AcDbEntity
8
1
100
AcDbVertex
100
AcDb2dVertex
62
5
10
-159.544972
20
540.441273
0
VERTEX
5
620
100
AcDbEntity
8
1
100
AcDbVertex
100
AcDb2dVertex
62
5
10
-159.349660
20
539.503773
0
SEQEND
5
621
100
AcDbEntity
8
1
0
LINE
5
622
100
AcDbEntity
8
1
100
AcDbLine
6
CONTINUOUS
62
5
10
-159.662160
20
539.816273
11
-159.427785
21
539.816273
0
POLYLINE
5
623
100
AcDbEntity
8
1
6
CONTINUOUS
62
5
100
AcDb2dPolyline
66
1
10
0.0
20
0.0
30
0.0
70
0
0
VERTEX
5
624
100
AcDbEntity
8
1
100
AcDbVertex
100
AcDb2dVertex
62
5
10
-157.474660
20
540.441273
0
VERTEX
5
625
100
AcDbEntity
8
1
100
AcDbVertex
100
AcDb2dVertex
62
5
10
-157.865285
20
540.441273
0
VERTEX
5
626
100
AcDbEntity
8
1
100
AcDbVertex
100
AcDb2dVertex
62
5
10
-157.865285
20
539.503773
0
VERTEX
5
627
100
AcDbEntity
8
1
100
AcDbVertex
100
AcDb2dVertex
62
5
10
-157.435597
20
539.503773
0
SEQEND
5
628
100
AcDbEntity
8
1
0
LINE
5
629
100
AcDbEntity
8
1
100
AcDbLine
6
CONTINUOUS
62
5
10
-157.865285
20
539.972523
11
-157.513722
21
539.972523
0
ARC
5
62a
100
AcDbEntity
8
1
100
AcDbCircle
6
CONTINUOUS
62
5
10
-158.646535
20
536.441272
40
1.500000
100
AcDbArc
50
179.999998
51
0.000000
0
LINE
5
62b
100
AcDbEntity
8
1
100
AcDbLine
6
CONTINUOUS
62
5
10
-157.146535
20
536.441272
11
-157.146535
21
536.441272
0
ARC
5
62c
100
AcDbEntity
8
1
100
AcDbCircle
6
CONTINUOUS
62
5
10
-158.646535
20
536.441272
40
1.500000
100
AcDbArc
50
0.000000
51
179.999998
0
LINE
5
62d
100
AcDbEntity
8
1
100
AcDbLine
6
CONTINUOUS
62
5
10
-160.146535
20
536.441272
11
-160.146535
21
536.441272
0
CIRCLE
5
62e
100
AcDbEntity
8
1
100
AcDbCircle
6
CONTINUOUS
62
5
10
-167.396535
20
546.941273
40
1.175000
0
LINE
5
62f
100
AcDbEntity
8
1
100
AcDbLine
6
CONTINUOUS
62
5
10
-167.767766
20
547.312504
11
-167.025304
21
546.570042
0
LINE
5
630
100
AcDbEntity
8
1
100
AcDbLine
6
CONTINUOUS
62
5
10
-167.025304
20
547.312504
11
-167.767766
21
546.570042
0
LINE
5
631
100
AcDbEntity
8
1
100
AcDbLine
6
CONTINUOUS
62
5
10
-159.037160
20
531.480335
11
-159.427785
21
530.464710
0
POLYLINE
5
632
100
AcDbEntity
8
1
6
CONTINUOUS
62
5
100
AcDb2dPolyline
66
1
10
0.0
20
0.0
30
0.0
70
1
0
VERTEX
5
633
100
AcDbEntity
8
1
100
AcDbVertex
100
AcDb2dVertex
62
5
10
-158.646535
20
531.441273
0
VERTEX
5
634
100
AcDbEntity
8
1
100
AcDbVertex
100
AcDb2dVertex
62
5
10
-158.568410
20
531.441273
0
VERTEX
5
635
100
AcDbEntity
8
1
100
AcDbVertex
100
AcDb2dVertex
62
5
10
-158.490285
20
531.402210
0
VERTEX
5
636
100
AcDbEntity
8
1
100
AcDbVertex
100
AcDb2dVertex
62
5
10
-158.451222
20
531.363148
0
VERTEX
5
637
100
AcDbEntity
8
1
100
AcDbVertex
100
AcDb2dVertex
62
5
10
-158.412160
20
531.206898
0
VERTEX
5
638
100
AcDbEntity
8
1
100
AcDbVertex
100
AcDb2dVertex
62
5
10
-158.412160
20
530.738148
0
VERTEX
5
639
100
AcDbEntity
8
1
100
AcDbVertex
100
AcDb2dVertex
62
5
10
-158.451222
20
530.581898
0
VERTEX
5
63a
100
AcDbEntity
8
1
100
AcDbVertex
100
AcDb2dVertex
62
5
10
-158.490285
20
530.542835
0
VERTEX
5
63b
100
AcDbEntity
8
1
100
AcDbVertex
100
AcDb2dVertex
62
5
10
-158.568410
20
530.503773
0
VERTEX
5
63c
100
AcDbEntity
8
1
100
AcDbVertex
100
AcDb2dVertex
62
5
10
-158.646535
20
530.503773
0
VERTEX
5
63d
100
AcDbEntity
8
1
100
AcDbVertex
100
AcDb2dVertex
62
5
10
-158.724660
20
530.542835
0
VERTEX
5
63e
100
AcDbEntity
8
1
100
AcDbVertex
100
AcDb2dVertex
62
5
10
-158.763722
20
530.581898
0
VERTEX
5
63f
100
AcDbEntity
8
1
100
AcDbVertex
100
AcDb2dVertex
62
5
10
-158.802785
20
530.738148
0
VERTEX
5
640
100
AcDbEntity
8
1
100
AcDbVertex
100
AcDb2dVertex
62
5
10
-158.802785
20
531.206898
0
VERTEX
5
641
100
AcDbEntity
8
1
100
AcDbVertex
100
AcDb2dVertex
62
5
10
-158.763722
20
531.363148
0
VERTEX
5
642
100
AcDbEntity
8
1
100
AcDbVertex
100
AcDb2dVertex
62
5
10
-158.724660
20
531.402210
0
VERTEX
5
643
100
AcDbEntity
8
1
100
AcDbVertex
100
AcDb2dVertex
62
5
10
-158.646535
20
531.441273
0
SEQEND
5
644
100
AcDbEntity
8
1
0
LINE
5
645
100
AcDbEntity
8
1
100
AcDbLine
6
CONTINUOUS
62
5
10
-158.177785
20
530.972523
11
-157.787160
21
530.972523
0
CIRCLE
5
646
100
AcDbEntity
8
1
100
AcDbCircle
6
CONTINUOUS
62
5
10
-161.521535
20
529.316273
40
0.787500
0
LINE
5
647
100
AcDbEntity
8
1
100
AcDbLine
6
CONTINUOUS
62
5
10
-160.964688
20
529.873120
11
-162.078381
21
528.759426
0
LINE
5
648
100
AcDbEntity
8
1
100
AcDbLine
6
CONTINUOUS
62
5
10
-161.203337
20
528.998075
11
-161.839733
21
529.634471
0
LINE
5
649
100
AcDbEntity
8
1
100
AcDbLine
6
CONTINUOUS
62
5
10
-159.974660
20
531.441273
11
-159.740285
21
531.441273
0
LINE
5
64a
100
AcDbEntity
8
1
100
AcDbLine
6
CONTINUOUS
62
5
10
-159.857472
20
531.441273
11
-159.857472
21
530.503773
0
LINE
5
64b
100
AcDbEntity
8
1
100
AcDbLine
6
CONTINUOUS
62
5
10
-159.974660
20
530.503773
11
-159.740285
21
530.503773
0
CIRCLE
5
64c
100
AcDbEntity
8
1
100
AcDbCircle
6
CONTINUOUS
62
5
10
-161.521535
20
523.566273
40
0.787500
0
LINE
5
64d
100
AcDbEntity
8
1
100
AcDbLine
6
CONTINUOUS
62
5
10
-160.964688
20
524.123120
11
-162.078381
21
523.009426
0
LINE
5
64e
100
AcDbEntity
8
1
100
AcDbLine
6
CONTINUOUS
62
5
10
-161.203337
20
523.248075
11
-161.839733
21
523.884471
0
POLYLINE
5
64f
100
AcDbEntity
8
1
6
CONTINUOUS
62
5
100
AcDb2dPolyline
66
1
10
0.0
20
0.0
30
0.0
70
0
0
VERTEX
5
650
100
AcDbEntity
8
1
100
AcDbVertex
100
AcDb2dVertex
62
5
10
-157.162160
20
531.245960
0
VERTEX
5
651
100
AcDbEntity
8
1
100
AcDbVertex
100
AcDb2dVertex
62
5
10
-157.240285
20
531.402210
0
VERTEX
5
652
100
AcDbEntity
8
1
100
AcDbVertex
100
AcDb2dVertex
62
5
10
-157.357472
20
531.441273
0
VERTEX
5
653
100
AcDbEntity
8
1
100
AcDbVertex
100
AcDb2dVertex
62
5
10
-157.435597
20
531.441273
0
VERTEX
5
654
100
AcDbEntity
8
1
100
AcDbVertex
100
AcDb2dVertex
62
5
10
-157.513722
20
531.402210
0
VERTEX
5
655
100
AcDbEntity
8
1
100
AcDbVertex
100
AcDb2dVertex
62
5
10
-157.591847
20
531.285023
0
VERTEX
5
656
100
AcDbEntity
8
1
100
AcDbVertex
100
AcDb2dVertex
62
5
10
-157.591847
20
531.167835
0
VERTEX
5
657
100
AcDbEntity
8
1
100
AcDbVertex
100
AcDb2dVertex
62
5
10
-157.513722
20
531.050648
0
VERTEX
5
658
100
AcDbEntity
8
1
100
AcDbVertex
100
AcDb2dVertex
62
5
10
-157.240285
20
530.894398
0
VERTEX
5
659
100
AcDbEntity
8
1
100
AcDbVertex
100
AcDb2dVertex
62
5
10
-157.162160
20
530.777210
0
VERTEX
5
65a
100
AcDbEntity
8
1
100
AcDbVertex
100
AcDb2dVertex
62
5
10
-157.162160
20
530.660023
0
VERTEX
5
65b
100
AcDbEntity
8
1
100
AcDbVertex
100
AcDb2dVertex
62
5
10
-157.240285
20
530.542835
0
VERTEX
5
65c
100
AcDbEntity
8
1
100
AcDbVertex
100
AcDb2dVertex
62
5
10
-157.357472
20
530.503773
0
VERTEX
5
65d
100
AcDbEntity
8
1
100
AcDbVertex
100
AcDb2dVertex
62
5
10
-157.435597
20
530.503773
0
VERTEX
5
65e
100
AcDbEntity
8
1
100
AcDbVertex
100
AcDb2dVertex
62
5
10
-157.552785
20
530.581898
0
VERTEX
5
65f
100
AcDbEntity
8
1
100
AcDbVertex
100
AcDb2dVertex
62
5
10
-157.591847
20
530.738148
0
SEQEND
5
660
100
AcDbEntity
8
1
0
LINE
5
661
100
AcDbEntity
8
1
100
AcDbLine
6
CONTINUOUS
62
5
10
-167.025304
20
526.312504
11
-167.767766
21
525.570042
0
LINE
5
662
100
AcDbEntity
8
1
100
AcDbLine
6
CONTINUOUS
62
5
10
-167.767766
20
526.312504
11
-167.025304
21
525.570042
0
CIRCLE
5
663
100
AcDbEntity
8
1
100
AcDbCircle
6
CONTINUOUS
62
5
10
-167.396535
20
525.941273
40
1.175000
0
CIRCLE
5
664
100
AcDbEntity
8
1
100
AcDbCircle
6
CONTINUOUS
62
5
10
-160.646535
20
534.441273
40
0.662500
0
LINE
5
665
100
AcDbEntity
8
1
100
AcDbLine
6
CONTINUOUS
62
5
10
-160.178077
20
534.909731
11
-161.114993
21
533.972815
0
LINE
5
666
100
AcDbEntity
8
1
100
AcDbLine
6
CONTINUOUS
62
5
10
-160.425564
20
534.220302
11
-160.867506
21
534.662244
0
POLYLINE
5
667
100
AcDbEntity
8
1
6
CONTINUOUS
62
5
100
AcDb2dPolyline
66
1
10
0.0
20
0.0
30
0.0
70
0
0
VERTEX
5
668
100
AcDbEntity
8
1
100
AcDbVertex
100
AcDb2dVertex
62
5
10
-157.240285
20
540.441273
0
VERTEX
5
669
100
AcDbEntity
8
1
100
AcDbVertex
100
AcDb2dVertex
62
5
10
-157.240285
20
539.503773
0
VERTEX
5
66a
100
AcDbEntity
8
1
100
AcDbVertex
100
AcDb2dVertex
62
5
10
-156.849660
20
539.503773
0
SEQEND
5
66b
100
AcDbEntity
8
1
0
CIRCLE
5
66c
100
AcDbEntity
8
1
100
AcDbCircle
6
CONTINUOUS
62
5
10
-158.646535
20
536.441272
40
1.875000
0
POLYLINE
5
66d
100
AcDbEntity
8
1
6
CONTINUOUS
62
5
100
AcDb2dPolyline
66
1
10
0.0
20
0.0
30
0.0
70
0
0
VERTEX
5
66e
100
AcDbEntity
8
1
100
AcDbVertex
100
AcDb2dVertex
62
5
10
-156.615285
20
540.441273
0
VERTEX
5
66f
100
AcDbEntity
8
1
100
AcDbVertex
100
AcDb2dVertex
62
5
10
-156.615285
20
539.503773
0
VERTEX
5
670
100
AcDbEntity
8
1
100
AcDbVertex
100
AcDb2dVertex
62
5
10
-156.224660
20
539.503773
0
SEQEND
5
671
100
AcDbEntity
8
1
0
CIRCLE
5
672
100
AcDbEntity
8
1
100
AcDbCircle
6
CONTINUOUS
62
5
10
-155.771535
20
529.316273
40
0.787500
0
LINE
5
673
100
AcDbEntity
8
1
100
AcDbLine
6
CONTINUOUS
62
5
10
-155.214688
20
529.873120
11
-156.328381
21
528.759426
0
LINE
5
674
100
AcDbEntity
8
1
100
AcDbLine
6
CONTINUOUS
62
5
10
-155.453337
20
528.998075
11
-156.089733
21
529.634471
0
CIRCLE
5
675
100
AcDbEntity
8
1
100
AcDbCircle
6
CONTINUOUS
62
5
10
-155.771535
20
523.566273
40
0.787500
0
LINE
5
676
100
AcDbEntity
8
1
100
AcDbLine
6
CONTINUOUS
62
5
10
-155.214688
20
524.123120
11
-156.328381
21
523.009426
0
LINE
5
677
100
AcDbEntity
8
1
100
AcDbLine
6
CONTINUOUS
62
5
10
-155.453337
20
523.248075
11
-156.089733
21
523.884471
0
CIRCLE
5
678
100
AcDbEntity
8
1
100
AcDbCircle
6
CONTINUOUS
62
5
10
-156.646535
20
534.441273
40
0.662500
0
LINE
5
679
100
AcDbEntity
8
1
100
AcDbLine
6
CONTINUOUS
62
5
10
-156.178077
20
534.909731
11
-157.114993
21
533.972815
0
LINE
5
67a
100
AcDbEntity
8
1
100
AcDbLine
6
CONTINUOUS
62
5
10
-156.425564
20
534.220302
11
-156.867506
21
534.662244
0
CIRCLE
5
67b
100
AcDbEntity
8
1
100
AcDbCircle
6
CONTINUOUS
62
5
10
-156.646535
20
538.441273
40
0.662500
0
LINE
5
67c
100
AcDbEntity
8
1
100
AcDbLine
6
CONTINUOUS
62
5
10
-156.178077
20
538.909731
11
-157.114993
21
537.972815
0
LINE
5
67d
100
AcDbEntity
8
1
100
AcDbLine
6
CONTINUOUS
62
5
10
-156.425564
20
538.220302
11
-156.867506
21
538.662244
0
ARC
5
67e
100
AcDbEntity
8
1
100
AcDbCircle
6
CONTINUOUS
62
5
10
-156.521535
20
534.316272
40
0.500000
100
AcDbArc
50
-89.999999
51
0.000000
0
LINE
5
67f
100
AcDbEntity
8
1
100
AcDbLine
6
CONTINUOUS
62
5
10
-156.021535
20
534.316272
11
-156.021535
21
538.566272
0
ARC
5
680
100
AcDbEntity
8
1
100
AcDbCircle
6
CONTINUOUS
62
5
10
-156.521535
20
538.566272
40
0.500000
100
AcDbArc
50
0.000000
51
89.999999
0
LINE
5
681
100
AcDbEntity
8
1
100
AcDbLine
6
CONTINUOUS
62
5
10
-156.521535
20
539.066272
11
-160.771535
21
539.066272
0
ARC
5
682
100
AcDbEntity
8
1
100
AcDbCircle
6
CONTINUOUS
62
5
10
-160.771535
20
538.566272
40
0.500000
100
AcDbArc
50
89.999999
51
179.999998
0
LINE
5
683
100
AcDbEntity
8
1
100
AcDbLine
6
CONTINUOUS
62
5
10
-161.271535
20
538.566272
11
-161.271535
21
534.316272
0
ARC
5
684
100
AcDbEntity
8
1
100
AcDbCircle
6
CONTINUOUS
62
5
10
-160.771535
20
534.316272
40
0.500000
100
AcDbArc
50
179.999998
51
-89.999999
0
LINE
5
685
100
AcDbEntity
8
1
100
AcDbLine
6
CONTINUOUS
62
5
10
-160.771535
20
533.816272
11
-156.521535
21
533.816272
0
ARC
5
686
100
AcDbEntity
8
1
100
AcDbCircle
6
CONTINUOUS
62
5
10
-158.646535
20
526.441273
40
2.250000
100
AcDbArc
50
0.000000
51
179.999998
0
LINE
5
687
100
AcDbEntity
8
1
100
AcDbLine
6
CONTINUOUS
62
5
10
-160.896535
20
526.441273
11
-160.896535
21
526.441273
0
ARC
5
688
100
AcDbEntity
8
1
100
AcDbCircle
6
CONTINUOUS
62
5
10
-158.646535
20
526.441273
40
2.250000
100
AcDbArc
50
179.999998
51
0.000000
0
LINE
5
689
100
AcDbEntity
8
1
100
AcDbLine
6
CONTINUOUS
62
5
10
-156.396535
20
526.441273
11
-156.396535
21
526.441273
0
CIRCLE
5
68a
100
AcDbEntity
8
1
100
AcDbCircle
6
CONTINUOUS
62
5
10
-158.646535
20
526.441273
40
2.750000
0
ARC
5
68b
100
AcDbEntity
8
1
100
AcDbCircle
6
CONTINUOUS
62
5
10
-155.771535
20
523.566273
40
0.750000
100
AcDbArc
50
-89.999999
51
0.000000
0
LINE
5
68c
100
AcDbEntity
8
1
100
AcDbLine
6
CONTINUOUS
62
5
10
-155.021535
20
523.566273
11
-155.021535
21
529.316273
0
ARC
5
68d
100
AcDbEntity
8
1
100
AcDbCircle
6
CONTINUOUS
62
5
10
-155.771535
20
529.316273
40
0.750000
100
AcDbArc
50
0.000000
51
89.999999
0
LINE
5
68e
100
AcDbEntity
8
1
100
AcDbLine
6
CONTINUOUS
62
5
10
-155.771535
20
530.066273
11
-161.521535
21
530.066273
0
ARC
5
68f
100
AcDbEntity
8
1
100
AcDbCircle
6
CONTINUOUS
62
5
10
-161.521535
20
529.316273
40
0.750000
100
AcDbArc
50
89.999999
51
179.999998
0
LINE
5
690
100
AcDbEntity
8
1
100
AcDbLine
6
CONTINUOUS
62
5
10
-162.271535
20
529.316273
11
-162.271535
21
523.566273
0
ARC
5
691
100
AcDbEntity
8
1
100
AcDbCircle
6
CONTINUOUS
62
5
10
-161.521535
20
523.566273
40
0.750000
100
AcDbArc
50
179.999998
51
-89.999999
0
LINE
5
692
100
AcDbEntity
8
1
100
AcDbLine
6
CONTINUOUS
62
5
10
-161.521535
20
522.816273
11
-155.771535
21
522.816273
0
POLYLINE
5
693
100
AcDbEntity
8
1
6
CONTINUOUS
62
5
100
AcDb2dPolyline
66
1
10
0.0
20
0.0
30
0.0
70
0
0
VERTEX
5
694
100
AcDbEntity
8
1
100
AcDbVertex
100
AcDb2dVertex
62
5
10
-179.696535
20
541.316273
0
VERTEX
5
695
100
AcDbEntity
8
1
100
AcDbVertex
100
AcDb2dVertex
62
5
10
-179.771535
20
541.316273
0
VERTEX
5
696
100
AcDbEntity
8
1
100
AcDbVertex
100
AcDb2dVertex
62
5
10
-179.771535
20
536.316273
0
VERTEX
5
697
100
AcDbEntity
8
1
100
AcDbVertex
100
AcDb2dVertex
62
5
10
-176.521535
20
536.316273
0
VERTEX
5
698
100
AcDbEntity
8
1
100
AcDbVertex
100
AcDb2dVertex
62
5
10
-176.521535
20
541.316273
0
VERTEX
5
699
100
AcDbEntity
8
1
100
AcDbVertex
100
AcDb2dVertex
62
5
10
-176.596535
20
541.316273
0
SEQEND
5
69a
100
AcDbEntity
8
1
0
POLYLINE
5
69b
100
AcDbEntity
8
1
6
CONTINUOUS
62
5
100
AcDb2dPolyline
66
1
10
0.0
20
0.0
30
0.0
70
0
0
VERTEX
5
69c
100
AcDbEntity
8
1
100
AcDbVertex
100
AcDb2dVertex
62
5
10
-179.696535
20
541.316273
0
VERTEX
5
69d
100
AcDbEntity
8
1
100
AcDbVertex
100
AcDb2dVertex
62
5
10
-179.771535
20
541.316273
0
VERTEX
5
69e
100
AcDbEntity
8
1
100
AcDbVertex
100
AcDb2dVertex
62
5
10
-179.771535
20
536.316273
0
VERTEX
5
69f
100
AcDbEntity
8
1
100
AcDbVertex
100
AcDb2dVertex
62
5
10
-176.521535
20
536.316273
0
VERTEX
5
6a0
100
AcDbEntity
8
1
100
AcDbVertex
100
AcDb2dVertex
62
5
10
-176.521535
20
541.316273
0
VERTEX
5
6a1
100
AcDbEntity
8
1
100
AcDbVertex
100
AcDb2dVertex
62
5
10
-176.596535
20
541.316273
0
SEQEND
5
6a2
100
AcDbEntity
8
1
0
POLYLINE
5
6a3
100
AcDbEntity
8
1
6
CONTINUOUS
62
5
100
AcDb2dPolyline
66
1
10
0.0
20
0.0
30
0.0
70
1
0
VERTEX
5
6a4
100
AcDbEntity
8
1
100
AcDbVertex
100
AcDb2dVertex
62
5
10
-179.696535
20
539.872897
0
VERTEX
5
6a5
100
AcDbEntity
8
1
100
AcDbVertex
100
AcDb2dVertex
62
5
10
-179.696535
20
542.543142
0
VERTEX
5
6a6
100
AcDbEntity
8
1
100
AcDbVertex
100
AcDb2dVertex
62
5
10
-176.596535
20
542.543142
0
VERTEX
5
6a7
100
AcDbEntity
8
1
100
AcDbVertex
100
AcDb2dVertex
62
5
10
-176.596535
20
539.872897
0
SEQEND
5
6a8
100
AcDbEntity
8
1
0
POLYLINE
5
6a9
100
AcDbEntity
8
1
6
CONTINUOUS
62
5
100
AcDb2dPolyline
66
1
10
0.0
20
0.0
30
0.0
70
1
0
VERTEX
5
6aa
100
AcDbEntity
8
1
100
AcDbVertex
100
AcDb2dVertex
62
5
10
-179.696535
20
539.872897
0
VERTEX
5
6ab
100
AcDbEntity
8
1
100
AcDbVertex
100
AcDb2dVertex
62
5
10
-179.696535
20
542.543142
0
VERTEX
5
6ac
100
AcDbEntity
8
1
100
AcDbVertex
100
AcDb2dVertex
62
5
10
-176.596535
20
542.543142
0
VERTEX
5
6ad
100
AcDbEntity
8
1
100
AcDbVertex
100
AcDb2dVertex
62
5
10
-176.596535
20
539.872897
0
SEQEND
5
6ae
100
AcDbEntity
8
1
0
LINE
5
6af
100
AcDbEntity
8
1
100
AcDbLine
6
CONTINUOUS
62
5
10
-179.696535
20
541.460611
11
-176.596535
21
541.460611
0
LINE
5
6b0
100
AcDbEntity
8
1
100
AcDbLine
6
CONTINUOUS
62
5
10
-179.696535
20
541.460611
11
-176.596535
21
541.460611
0
LINE
5
6b1
100
AcDbEntity
8
1
100
AcDbLine
6
HIDDEN
62
5
10
-179.696535
20
541.316273
11
-176.596535
21
541.316273
0
LINE
5
6b2
100
AcDbEntity
8
1
100
AcDbLine
6
HIDDEN
62
5
10
-179.696535
20
541.316273
11
-176.596535
21
541.316273
0
POLYLINE
5
6b3
100
AcDbEntity
8
1
6
CONTINUOUS
62
5
100
AcDb2dPolyline
66
1
10
0.0
20
0.0
30
0.0
70
1
0
VERTEX
5
6b4
100
AcDbEntity
8
1
100
AcDbVertex
100
AcDb2dVertex
62
5
10
-188.896535
20
546.941273
0
VERTEX
5
6b5
100
AcDbEntity
8
1
100
AcDbVertex
100
AcDb2dVertex
62
5
10
-188.896535
20
546.941273
0
VERTEX
5
6b6
100
AcDbEntity
8
1
100
AcDbVertex
100
AcDb2dVertex
62
5
10
-188.896535
20
546.941273
0
SEQEND
5
6b7
100
AcDbEntity
8
1
0
LINE
5
6b8
100
AcDbEntity
8
1
100
AcDbLine
6
CONTINUOUS
62
5
10
-189.267766
20
547.312504
11
-188.525304
21
546.570042
0
LINE
5
6b9
100
AcDbEntity
8
1
100
AcDbLine
6
CONTINUOUS
62
5
10
-188.525304
20
547.312504
11
-189.267766
21
546.570042
0
LINE
5
6ba
100
AcDbEntity
8
1
100
AcDbLine
6
CONTINUOUS
62
5
10
-188.525304
20
526.312504
11
-189.267766
21
525.570042
0
LINE
5
6bb
100
AcDbEntity
8
1
100
AcDbLine
6
CONTINUOUS
62
5
10
-189.267766
20
526.312504
11
-188.525304
21
525.570042
0
POLYLINE
5
6bc
100
AcDbEntity
8
1
6
CONTINUOUS
62
5
100
AcDb2dPolyline
66
1
10
0.0
20
0.0
30
0.0
70
1
0
VERTEX
5
6bd
100
AcDbEntity
8
1
100
AcDbVertex
100
AcDb2dVertex
62
5
10
-180.896535
20
530.191273
0
VERTEX
5
6be
100
AcDbEntity
8
1
100
AcDbVertex
100
AcDb2dVertex
62
5
10
-180.896535
20
542.691273
0
VERTEX
5
6bf
100
AcDbEntity
8
1
100
AcDbVertex
100
AcDb2dVertex
62
5
10
-175.396535
20
542.691273
0
VERTEX
5
6c0
100
AcDbEntity
8
1
100
AcDbVertex
100
AcDb2dVertex
62
5
10
-175.396535
20
530.191273
0
SEQEND
5
6c1
100
AcDbEntity
8
1
0
POLYLINE
5
6c2
100
AcDbEntity
8
1
6
CONTINUOUS
62
5
100
AcDb2dPolyline
66
1
10
0.0
20
0.0
30
0.0
70
1
0
VERTEX
5
6c3
100
AcDbEntity
8
1
100
AcDbVertex
100
AcDb2dVertex
62
5
10
-180.896535
20
530.191273
0
VERTEX
5
6c4
100
AcDbEntity
8
1
100
AcDbVertex
100
AcDb2dVertex
62
5
10
-180.896535
20
542.691273
0
VERTEX
5
6c5
100
AcDbEntity
8
1
100
AcDbVertex
100
AcDb2dVertex
62
5
10
-175.396535
20
542.691273
0
VERTEX
5
6c6
100
AcDbEntity
8
1
100
AcDbVertex
100
AcDb2dVertex
62
5
10
-175.396535
20
530.191273
0
SEQEND
5
6c7
100
AcDbEntity
8
1
0
ARC
5
6c8
100
AcDbEntity
8
1
100
AcDbCircle
6
CONTINUOUS
62
5
10
-193.444154
20
531.191273
40
1.577381
100
AcDbArc
50
131.849002
51
-131.849002
0
POLYLINE
5
6c9
100
AcDbEntity
8
1
6
CONTINUOUS
62
5
100
AcDb2dPolyline
66
1
10
0.0
20
0.0
30
0.0
70
1
0
VERTEX
5
6ca
100
AcDbEntity
8
1
100
AcDbVertex
100
AcDb2dVertex
62
5
10
-194.396535
20
532.366273
0
VERTEX
5
6cb
100
AcDbEntity
8
1
100
AcDbVertex
100
AcDb2dVertex
62
5
10
-194.396535
20
530.016273
0
VERTEX
5
6cc
100
AcDbEntity
8
1
100
AcDbVertex
100
AcDb2dVertex
62
5
10
-194.496535
20
530.016273
0
VERTEX
5
6cd
100
AcDbEntity
8
1
100
AcDbVertex
100
AcDb2dVertex
62
5
10
-194.496535
20
532.366273
0
SEQEND
5
6ce
100
AcDbEntity
8
1
0
CIRCLE
5
6cf
100
AcDbEntity
8
1
100
AcDbCircle
6
CONTINUOUS
62
5
10
-188.896535
20
546.941273
40
1.175000
0
CIRCLE
5
6d0
100
AcDbEntity
8
1
100
AcDbCircle
6
CONTINUOUS
62
5
10
-188.896535
20
525.941273
40
1.175000
0
ARC
5
6d1
100
AcDbEntity
8
1
100
AcDbCircle
6
CONTINUOUS
62
5
10
-170.146535
20
530.191273
40
0.250000
100
AcDbArc
50
-89.999999
51
0.000000
0
LINE
5
6d2
100
AcDbEntity
8
1
100
AcDbLine
6
CONTINUOUS
62
5
10
-169.896535
20
530.191273
11
-169.896535
21
542.691273
0
ARC
5
6d3
100
AcDbEntity
8
1
100
AcDbCircle
6
CONTINUOUS
62
5
10
-170.146535
20
542.691273
40
0.250000
100
AcDbArc
50
0.000000
51
89.999999
0
LINE
5
6d4
100
AcDbEntity
8
1
100
AcDbLine
6
CONTINUOUS
62
5
10
-170.146535
20
542.941273
11
-186.146535
21
542.941273
0
ARC
5
6d5
100
AcDbEntity
8
1
100
AcDbCircle
6
CONTINUOUS
62
5
10
-186.146535
20
542.691273
40
0.250000
100
AcDbArc
50
89.999999
51
179.999998
0
LINE
5
6d6
100
AcDbEntity
8
1
100
AcDbLine
6
CONTINUOUS
62
5
10
-186.396535
20
542.691273
11
-186.396535
21
530.191273
0
ARC
5
6d7
100
AcDbEntity
8
1
100
AcDbCircle
6
CONTINUOUS
62
5
10
-186.146535
20
530.191273
40
0.250000
100
AcDbArc
50
179.999998
51
-89.999999
0
LINE
5
6d8
100
AcDbEntity
8
1
100
AcDbLine
6
CONTINUOUS
62
5
10
-186.146535
20
529.941273
11
-170.146535
21
529.941273
0
LINE
5
6d9
100
AcDbEntity
8
1
100
AcDbLine
6
CONTINUOUS
62
5
10
-140.537160
20
516.330335
11
-140.927785
21
515.314710
0
LINE
5
6da
100
AcDbEntity
8
1
100
AcDbLine
6
CONTINUOUS
62
5
10
-141.474660
20
516.291273
11
-141.240285
21
516.291273
0
LINE
5
6db
100
AcDbEntity
8
1
100
AcDbLine
6
CONTINUOUS
62
5
10
-141.357472
20
516.291273
11
-141.357472
21
515.353773
0
LINE
5
6dc
100
AcDbEntity
8
1
100
AcDbLine
6
CONTINUOUS
62
5
10
-141.474660
20
515.353773
11
-141.240285
21
515.353773
0
CIRCLE
5
6dd
100
AcDbEntity
8
1
100
AcDbCircle
6
CONTINUOUS
62
5
10
-147.459035
20
513.410023
40
0.187500
0
CIRCLE
5
6de
100
AcDbEntity
8
1
100
AcDbCircle
6
DOT2
62
5
10
-147.459035
20
513.410023
40
0.312500
0
CIRCLE
5
6df
100
AcDbEntity
8
1
100
AcDbCircle
6
CONTINUOUS
62
5
10
-155.396535
20
511.941273
40
0.787500
0
LINE
5
6e0
100
AcDbEntity
8
1
100
AcDbLine
6
CONTINUOUS
62
5
10
-154.839688
20
512.498120
11
-155.953381
21
511.384426
0
LINE
5
6e1
100
AcDbEntity
8
1
100
AcDbLine
6
CONTINUOUS
62
5
10
-155.078337
20
511.623075
11
-155.714733
21
512.259471
0
POLYLINE
5
6e2
100
AcDbEntity
8
1
6
CONTINUOUS
62
5
100
AcDb2dPolyline
66
1
10
0.0
20
0.0
30
0.0
70
1
0
VERTEX
5
6e3
100
AcDbEntity
8
1
100
AcDbVertex
100
AcDb2dVertex
62
5
10
-147.819879
20
514.035023
0
VERTEX
5
6e4
100
AcDbEntity
8
1
100
AcDbVertex
100
AcDb2dVertex
62
5
10
-148.180723
20
513.410023
0
VERTEX
5
6e5
100
AcDbEntity
8
1
100
AcDbVertex
100
AcDb2dVertex
62
5
10
-147.819879
20
512.785023
0
VERTEX
5
6e6
100
AcDbEntity
8
1
100
AcDbVertex
100
AcDb2dVertex
62
5
10
-147.098191
20
512.785023
0
VERTEX
5
6e7
100
AcDbEntity
8
1
100
AcDbVertex
100
AcDb2dVertex
62
5
10
-146.737347
20
513.410023
0
VERTEX
5
6e8
100
AcDbEntity
8
1
100
AcDbVertex
100
AcDb2dVertex
62
5
10
-147.098191
20
514.035023
0
SEQEND
5
6e9
100
AcDbEntity
8
1
0
CIRCLE
5
6ea
100
AcDbEntity
8
1
100
AcDbCircle
6
CONTINUOUS
62
5
10
-161.896535
20
511.941273
40
0.787500
0
LINE
5
6eb
100
AcDbEntity
8
1
100
AcDbLine
6
CONTINUOUS
62
5
10
-161.339688
20
512.498120
11
-162.453381
21
511.384426
0
LINE
5
6ec
100
AcDbEntity
8
1
100
AcDbLine
6
CONTINUOUS
62
5
10
-161.578337
20
511.623075
11
-162.214733
21
512.259471
0
LINE
5
6ed
100
AcDbEntity
8
1
100
AcDbLine
6
CONTINUOUS
62
5
10
-170.017766
20
509.562504
11
-169.275304
21
508.820042
0
LINE
5
6ee
100
AcDbEntity
8
1
100
AcDbLine
6
CONTINUOUS
62
5
10
-169.275304
20
509.562504
11
-170.017766
21
508.820042
0
CIRCLE
5
6ef
100
AcDbEntity
8
1
100
AcDbCircle
6
CONTINUOUS
62
5
10
-169.646535
20
509.191273
40
1.175000
0
CIRCLE
5
6f0
100
AcDbEntity
8
1
100
AcDbCircle
6
CONTINUOUS
62
5
10
-158.646535
20
515.191273
40
3.250000
0
ARC
5
6f1
100
AcDbEntity
8
1
100
AcDbCircle
6
CONTINUOUS
62
5
10
-158.646535
20
515.191273
40
2.750000
100
AcDbArc
50
0.000000
51
179.999998
0
LINE
5
6f2
100
AcDbEntity
8
1
100
AcDbLine
6
CONTINUOUS
62
5
10
-161.396535
20
515.191273
11
-161.396535
21
515.191273
0
ARC
5
6f3
100
AcDbEntity
8
1
100
AcDbCircle
6
CONTINUOUS
62
5
10
-158.646535
20
515.191273
40
2.750000
100
AcDbArc
50
-179.999998
51
-0.000000
0
LINE
5
6f4
100
AcDbEntity
8
1
100
AcDbLine
6
CONTINUOUS
62
5
10
-155.896535
20
515.191273
11
-155.896535
21
515.191273
0
ARC
5
6f5
100
AcDbEntity
8
1
100
AcDbCircle
6
CONTINUOUS
62
5
10
-184.440363
20
504.691273
40
0.250000
100
AcDbArc
50
-89.999999
51
-1.432096
0
POLYLINE
5
6f6
100
AcDbEntity
8
1
6
CONTINUOUS
62
5
100
AcDb2dPolyline
66
1
10
0.0
20
0.0
30
0.0
70
0
0
VERTEX
5
6f7
100
AcDbEntity
8
1
100
AcDbVertex
100
AcDb2dVertex
62
5
10
-184.190441
20
504.685025
0
VERTEX
5
6f8
100
AcDbEntity
8
1
100
AcDbVertex
100
AcDb2dVertex
62
5
10
-184.146535
20
506.441273
0
VERTEX
5
6f9
100
AcDbEntity
8
1
100
AcDbVertex
100
AcDb2dVertex
62
5
10
-189.646535
20
506.441273
0
VERTEX
5
6fa
100
AcDbEntity
8
1
100
AcDbVertex
100
AcDb2dVertex
62
5
10
-189.602629
20
504.685025
0
SEQEND
5
6fb
100
AcDbEntity
8
1
0
ARC
5
6fc
100
AcDbEntity
8
1
100
AcDbCircle
6
CONTINUOUS
62
5
10
-189.352707
20
504.691273
40
0.250000
100
AcDbArc
50
-178.567902
51
-89.999999
0
LINE
5
6fd
100
AcDbEntity
8
1
100
AcDbLine
6
CONTINUOUS
62
5
10
-189.352707
20
504.441273
11
-184.440363
21
504.441273
0
ARC
5
6fe
100
AcDbEntity
8
1
100
AcDbCircle
6
CONTINUOUS
62
5
10
-179.146535
20
467.360477
40
1.577381
100
AcDbArc
50
41.849003
51
138.150995
0
POLYLINE
5
6ff
100
AcDbEntity
8
1
6
CONTINUOUS
62
5
100
AcDb2dPolyline
66
1
10
0.0
20
0.0
30
0.0
70
1
0
VERTEX
5
700
100
AcDbEntity
8
1
100
AcDbVertex
100
AcDb2dVertex
62
5
10
-180.321535
20
468.312858
0
VERTEX
5
701
100
AcDbEntity
8
1
100
AcDbVertex
100
AcDb2dVertex
62
5
10
-177.971535
20
468.312858
0
VERTEX
5
702
100
AcDbEntity
8
1
100
AcDbVertex
100
AcDb2dVertex
62
5
10
-177.971535
20
468.412858
0
VERTEX
5
703
100
AcDbEntity
8
1
100
AcDbVertex
100
AcDb2dVertex
62
5
10
-180.321535
20
468.412858
0
SEQEND
5
704
100
AcDbEntity
8
1
0
LINE
5
705
100
AcDbEntity
8
1
100
AcDbLine
6
CONTINUOUS
62
5
10
-184.396537
20
461.017058
11
-184.021537
21
461.017058
0
LINE
5
706
100
AcDbEntity
8
1
100
AcDbLine
6
CONTINUOUS
62
5
10
-184.396537
20
461.050059
11
-184.021537
21
461.050059
0
LINE
5
707
100
AcDbEntity
8
1
100
AcDbLine
6
CONTINUOUS
62
5
10
-184.396537
20
460.733031
11
-184.021537
21
460.733031
0
LINE
5
708
100
AcDbEntity
8
1
100
AcDbLine
6
CONTINUOUS
62
5
10
-184.396537
20
460.687858
11
-184.021537
21
460.687858
0
LINE
5
709
100
AcDbEntity
8
1
100
AcDbLine
6
CONTINUOUS
62
5
10
-184.396537
20
460.894408
11
-184.021537
21
460.894408
0
LINE
5
70a
100
AcDbEntity
8
1
100
AcDbLine
6
CONTINUOUS
62
5
10
-184.396537
20
460.855258
11
-184.021537
21
460.855258
0
ARC
5
70b
100
AcDbEntity
8
0
100
AcDbCircle
6
CONTINUOUS
62
5
10
-182.971535
20
460.939417
40
0.050000
100
AcDbArc
50
91.808902
51
-179.999988
0
LINE
5
70c
100
AcDbEntity
8
0
100
AcDbLine
6
CONTINUOUS
62
5
10
-183.146548
20
460.687853
11
-183.021548
21
460.812853
0
LINE
5
70d
100
AcDbEntity
8
1
100
AcDbLine
6
CONTINUOUS
62
5
10
-184.396537
20
460.566409
11
-184.021537
21
460.566409
0
LINE
5
70e
100
AcDbEntity
8
1
100
AcDbLine
6
CONTINUOUS
62
5
10
-184.396537
20
461.172809
11
-184.021537
21
461.172809
0
LINE
5
70f
100
AcDbEntity
8
1
100
AcDbLine
6
CONTINUOUS
62
5
10
-184.396537
20
461.199584
11
-184.021537
21
461.199584
0
LINE
5
710
100
AcDbEntity
8
1
100
AcDbLine
6
CONTINUOUS
62
5
10
-184.396537
20
461.322082
11
-184.021537
21
461.322082
0
LINE
5
711
100
AcDbEntity
8
1
100
AcDbLine
6
CONTINUOUS
62
5
10
-184.396537
20
460.515334
11
-184.021537
21
460.515334
0
LINE
5
712
100
AcDbEntity
8
1
100
AcDbLine
6
CONTINUOUS
62
5
10
-184.396537
20
460.394984
11
-184.021537
21
460.394984
0
LINE
5
713
100
AcDbEntity
8
1
100
AcDbLine
6
CONTINUOUS
62
5
10
-184.396537
20
459.971660
11
-184.021537
21
459.971660
0
LINE
5
714
100
AcDbEntity
8
1
100
AcDbLine
6
CONTINUOUS
62
5
10
-184.396537
20
459.856609
11
-184.021537
21
459.856609
0
LINE
5
715
100
AcDbEntity
8
1
100
AcDbLine
6
CONTINUOUS
62
5
10
-184.396537
20
460.338107
11
-184.021537
21
460.338107
0
LINE
5
716
100
AcDbEntity
8
1
100
AcDbLine
6
CONTINUOUS
62
5
10
-184.396537
20
460.219207
11
-184.021537
21
460.219207
0
LINE
5
717
100
AcDbEntity
8
1
100
AcDbLine
6
CONTINUOUS
62
5
10
-184.396537
20
460.156734
11
-184.021537
21
460.156734
0
LINE
5
718
100
AcDbEntity
8
1
100
AcDbLine
6
CONTINUOUS
62
5
10
-184.396537
20
460.039607
11
-184.021537
21
460.039607
0
LINE
5
719
100
AcDbEntity
8
1
100
AcDbLine
6
CONTINUOUS
62
5
10
-184.396537
20
459.783408
11
-184.021537
21
459.783408
0
LINE
5
71a
100
AcDbEntity
8
1
100
AcDbLine
6
CONTINUOUS
62
5
10
-184.396537
20
461.342559
11
-184.021537
21
461.342559
0
LINE
5
71b
100
AcDbEntity
8
1
100
AcDbLine
6
CONTINUOUS
62
5
10
-184.396537
20
461.478606
11
-184.021537
21
461.478606
0
LINE
5
71c
100
AcDbEntity
8
1
100
AcDbLine
6
CONTINUOUS
62
5
10
-184.396537
20
461.464507
11
-184.021537
21
461.464507
0
LINE
5
71d
100
AcDbEntity
8
1
100
AcDbLine
6
CONTINUOUS
62
5
10
-184.396537
20
461.607356
11
-184.021537
21
461.607356
0
LINE
5
71e
100
AcDbEntity
8
1
100
AcDbLine
6
CONTINUOUS
62
5
10
-184.396537
20
461.599631
11
-184.021537
21
461.599631
0
LINE
5
71f
100
AcDbEntity
8
1
100
AcDbLine
6
CONTINUOUS
62
5
10
-184.396537
20
461.727134
11
-184.021537
21
461.727134
0
LINE
5
720
100
AcDbEntity
8
1
100
AcDbLine
6
CONTINUOUS
62
5
10
-184.396537
20
461.846660
11
-184.021537
21
461.846660
0
LINE
5
721
100
AcDbEntity
8
1
100
AcDbLine
6
CONTINUOUS
62
5
10
-184.396537
20
462.562858
11
-184.021537
21
462.562858
0
LINE
5
722
100
AcDbEntity
8
1
100
AcDbLine
6
CONTINUOUS
62
5
10
-184.396537
20
462.557708
11
-184.021537
21
462.557708
0
LINE
5
723
100
AcDbEntity
8
1
100
AcDbLine
6
CONTINUOUS
62
5
10
-184.396537
20
462.542308
11
-184.021537
21
462.542308
0
LINE
5
724
100
AcDbEntity
8
1
100
AcDbLine
6
CONTINUOUS
62
5
10
-184.396537
20
462.516685
11
-184.021537
21
462.516685
0
LINE
5
725
100
AcDbEntity
8
1
100
AcDbLine
6
CONTINUOUS
62
5
10
-184.396537
20
462.480907
11
-184.021537
21
462.480907
0
LINE
5
726
100
AcDbEntity
8
1
100
AcDbLine
6
CONTINUOUS
62
5
10
-184.396537
20
462.435084
11
-184.021537
21
462.435084
0
LINE
5
727
100
AcDbEntity
8
1
100
AcDbLine
6
CONTINUOUS
62
5
10
-184.396537
20
462.379310
11
-184.021537
21
462.379310
0
LINE
5
728
100
AcDbEntity
8
1
100
AcDbLine
6
CONTINUOUS
62
5
10
-184.396537
20
462.313785
11
-184.021537
21
462.313785
0
ARC
5
729
100
AcDbEntity
8
1
100
AcDbCircle
6
CONTINUOUS
62
5
10
-184.196123
20
461.465331
40
1.025000
100
AcDbArc
50
53.365692
51
80.193113
0
LINE
5
72a
100
AcDbEntity
8
1
100
AcDbLine
6
CONTINUOUS
62
5
10
-184.396537
20
462.060432
11
-184.021537
21
462.060432
0
LINE
5
72b
100
AcDbEntity
8
1
100
AcDbLine
6
CONTINUOUS
62
5
10
-184.396537
20
461.957858
11
-184.021537
21
461.957858
0
LINE
5
72c
100
AcDbEntity
8
1
100
AcDbLine
6
CONTINUOUS
62
5
10
-184.396537
20
462.238658
11
-184.021537
21
462.238658
0
LINE
5
72d
100
AcDbEntity
8
1
100
AcDbLine
6
CONTINUOUS
62
5
10
-184.396537
20
462.154132
11
-184.021537
21
462.154132
0
ARC
5
72e
100
AcDbEntity
8
1
100
AcDbCircle
6
CONTINUOUS
62
5
10
-184.221947
20
461.465331
40
1.025000
100
AcDbArc
50
99.806883
51
159.807397
0
LINE
5
72f
100
AcDbEntity
8
1
100
AcDbLine
6
CONTINUOUS
62
5
10
-182.121535
20
461.016281
11
-182.121535
21
462.024459
0
LINE
5
730
100
AcDbEntity
8
1
100
AcDbLine
6
CONTINUOUS
62
5
10
-182.265872
20
462.287856
11
-182.265872
21
461.011723
0
LINE
5
731
100
AcDbEntity
8
1
100
AcDbLine
6
CONTINUOUS
62
5
10
-183.584500
20
462.287856
11
-182.265872
21
462.287856
0
LINE
5
732
100
AcDbEntity
8
1
100
AcDbLine
6
CONTINUOUS
62
5
10
-182.128232
20
462.049457
11
-182.265872
21
462.287856
0
ARC
5
733
100
AcDbEntity
8
1
100
AcDbCircle
6
CONTINUOUS
62
5
10
-182.171535
20
462.024459
40
0.050000
100
AcDbArc
50
0.000000
51
30.000001
0
POLYLINE
5
734
100
AcDbEntity
8
0
6
CONTINUOUS
62
5
100
AcDb2dPolyline
66
1
10
0.0
20
0.0
30
0.0
70
1
0
VERTEX
5
735
100
AcDbEntity
8
0
100
AcDbVertex
100
AcDb2dVertex
62
5
10
-181.896535
20
461.023385
0
VERTEX
5
736
100
AcDbEntity
8
0
100
AcDbVertex
100
AcDb2dVertex
62
5
10
-182.973110
20
460.989392
0
SEQEND
5
737
100
AcDbEntity
8
0
0
POLYLINE
5
738
100
AcDbEntity
8
1
6
CONTINUOUS
62
5
100
AcDb2dPolyline
66
1
10
0.0
20
0.0
30
0.0
70
1
0
VERTEX
5
739
100
AcDbEntity
8
1
100
AcDbVertex
100
AcDb2dVertex
62
5
10
-181.896535
20
461.887859
0
VERTEX
5
73a
100
AcDbEntity
8
1
100
AcDbVertex
100
AcDb2dVertex
62
5
10
-182.121535
20
461.887859
0
SEQEND
5
73b
100
AcDbEntity
8
1
0
CIRCLE
5
73c
100
AcDbEntity
8
1
100
AcDbCircle
6
CONTINUOUS
62
5
10
-149.396535
20
520.191273
40
0.787500
0
LINE
5
73d
100
AcDbEntity
8
1
100
AcDbLine
6
CONTINUOUS
62
5
10
-148.839688
20
520.748120
11
-149.953381
21
519.634426
0
LINE
5
73e
100
AcDbEntity
8
1
100
AcDbLine
6
CONTINUOUS
62
5
10
-149.078337
20
519.873075
11
-149.714733
21
520.509471
0
POLYLINE
5
73f
100
AcDbEntity
8
1
6
CONTINUOUS
62
5
100
AcDb2dPolyline
66
1
10
0.0
20
0.0
30
0.0
70
1
0
VERTEX
5
740
100
AcDbEntity
8
1
100
AcDbVertex
100
AcDb2dVertex
62
5
10
-147.637379
20
520.810023
0
VERTEX
5
741
100
AcDbEntity
8
1
100
AcDbVertex
100
AcDb2dVertex
62
5
10
-147.998223
20
520.185023
0
VERTEX
5
742
100
AcDbEntity
8
1
100
AcDbVertex
100
AcDb2dVertex
62
5
10
-147.637379
20
519.560023
0
VERTEX
5
743
100
AcDbEntity
8
1
100
AcDbVertex
100
AcDb2dVertex
62
5
10
-146.915691
20
519.560023
0
VERTEX
5
744
100
AcDbEntity
8
1
100
AcDbVertex
100
AcDb2dVertex
62
5
10
-146.554847
20
520.185023
0
VERTEX
5
745
100
AcDbEntity
8
1
100
AcDbVertex
100
AcDb2dVertex
62
5
10
-146.915691
20
520.810023
0
SEQEND
5
746
100
AcDbEntity
8
1
0
CIRCLE
5
747
100
AcDbEntity
8
1
100
AcDbCircle
6
CONTINUOUS
62
5
10
-155.396535
20
518.441273
40
0.787500
0
LINE
5
748
100
AcDbEntity
8
1
100
AcDbLine
6
CONTINUOUS
62
5
10
-154.839688
20
518.998120
11
-155.953381
21
517.884426
0
LINE
5
749
100
AcDbEntity
8
1
100
AcDbLine
6
CONTINUOUS
62
5
10
-155.078337
20
518.123075
11
-155.714733
21
518.759471
0
LINE
5
74a
100
AcDbEntity
8
1
100
AcDbLine
6
CONTINUOUS
62
5
10
-158.490285
20
520.566273
11
-158.490285
21
519.628773
0
POLYLINE
5
74b
100
AcDbEntity
8
1
6
CONTINUOUS
62
5
100
AcDb2dPolyline
66
1
10
0.0
20
0.0
30
0.0
70
0
0
VERTEX
5
74c
100
AcDbEntity
8
1
100
AcDbVertex
100
AcDb2dVertex
62
5
10
-158.490285
20
520.566273
0
VERTEX
5
74d
100
AcDbEntity
8
1
100
AcDbVertex
100
AcDb2dVertex
62
5
10
-158.294972
20
520.566273
0
VERTEX
5
74e
100
AcDbEntity
8
1
100
AcDbVertex
100
AcDb2dVertex
62
5
10
-158.216847
20
520.527210
0
VERTEX
5
74f
100
AcDbEntity
8
1
100
AcDbVertex
100
AcDb2dVertex
62
5
10
-158.177785
20
520.488148
0
VERTEX
5
750
100
AcDbEntity
8
1
100
AcDbVertex
100
AcDb2dVertex
62
5
10
-158.138722
20
520.410023
0
VERTEX
5
751
100
AcDbEntity
8
1
100
AcDbVertex
100
AcDb2dVertex
62
5
10
-158.138722
20
520.292835
0
VERTEX
5
752
100
AcDbEntity
8
1
100
AcDbVertex
100
AcDb2dVertex
62
5
10
-158.177785
20
520.214710
0
VERTEX
5
753
100
AcDbEntity
8
1
100
AcDbVertex
100
AcDb2dVertex
62
5
10
-158.216847
20
520.175648
0
VERTEX
5
754
100
AcDbEntity
8
1
100
AcDbVertex
100
AcDb2dVertex
62
5
10
-158.294972
20
520.136585
0
VERTEX
5
755
100
AcDbEntity
8
1
100
AcDbVertex
100
AcDb2dVertex
62
5
10
-158.490285
20
520.136585
0
SEQEND
5
756
100
AcDbEntity
8
1
0
POLYLINE
5
757
100
AcDbEntity
8
1
6
CONTINUOUS
62
5
100
AcDb2dPolyline
66
1
10
0.0
20
0.0
30
0.0
70
0
0
VERTEX
5
758
100
AcDbEntity
8
1
100
AcDbVertex
100
AcDb2dVertex
62
5
10
-158.294972
20
520.136585
0
VERTEX
5
759
100
AcDbEntity
8
1
100
AcDbVertex
100
AcDb2dVertex
62
5
10
-158.216847
20
520.097523
0
VERTEX
5
75a
100
AcDbEntity
8
1
100
AcDbVertex
100
AcDb2dVertex
62
5
10
-158.138722
20
520.019398
0
VERTEX
5
75b
100
AcDbEntity
8
1
100
AcDbVertex
100
AcDb2dVertex
62
5
10
-158.099660
20
519.941273
0
VERTEX
5
75c
100
AcDbEntity
8
1
100
AcDbVertex
100
AcDb2dVertex
62
5
10
-158.099660
20
519.785023
0
VERTEX
5
75d
100
AcDbEntity
8
1
100
AcDbVertex
100
AcDb2dVertex
62
5
10
-158.138722
20
519.706898
0
VERTEX
5
75e
100
AcDbEntity
8
1
100
AcDbVertex
100
AcDb2dVertex
62
5
10
-158.177785
20
519.667835
0
VERTEX
5
75f
100
AcDbEntity
8
1
100
AcDbVertex
100
AcDb2dVertex
62
5
10
-158.255910
20
519.628773
0
VERTEX
5
760
100
AcDbEntity
8
1
100
AcDbVertex
100
AcDb2dVertex
62
5
10
-158.490285
20
519.628773
0
SEQEND
5
761
100
AcDbEntity
8
1
0
CIRCLE
5
762
100
AcDbEntity
8
1
100
AcDbCircle
6
CONTINUOUS
62
5
10
-161.896535
20
518.441273
40
0.787500
0
LINE
5
763
100
AcDbEntity
8
1
100
AcDbLine
6
CONTINUOUS
62
5
10
-161.339688
20
518.998120
11
-162.453381
21
517.884426
0
LINE
5
764
100
AcDbEntity
8
1
100
AcDbLine
6
CONTINUOUS
62
5
10
-161.578337
20
518.123075
11
-162.214733
21
518.759471
0
POLYLINE
5
765
100
AcDbEntity
8
1
6
CONTINUOUS
62
5
100
AcDb2dPolyline
66
1
10
0.0
20
0.0
30
0.0
70
0
0
VERTEX
5
766
100
AcDbEntity
8
1
100
AcDbVertex
100
AcDb2dVertex
62
5
10
-159.974660
20
520.370960
0
VERTEX
5
767
100
AcDbEntity
8
1
100
AcDbVertex
100
AcDb2dVertex
62
5
10
-160.052785
20
520.527210
0
VERTEX
5
768
100
AcDbEntity
8
1
100
AcDbVertex
100
AcDb2dVertex
62
5
10
-160.169972
20
520.566273
0
VERTEX
5
769
100
AcDbEntity
8
1
100
AcDbVertex
100
AcDb2dVertex
62
5
10
-160.248097
20
520.566273
0
VERTEX
5
76a
100
AcDbEntity
8
1
100
AcDbVertex
100
AcDb2dVertex
62
5
10
-160.326222
20
520.527210
0
VERTEX
5
76b
100
AcDbEntity
8
1
100
AcDbVertex
100
AcDb2dVertex
62
5
10
-160.404347
20
520.410023
0
VERTEX
5
76c
100
AcDbEntity
8
1
100
AcDbVertex
100
AcDb2dVertex
62
5
10
-160.404347
20
520.292835
0
VERTEX
5
76d
100
AcDbEntity
8
1
100
AcDbVertex
100
AcDb2dVertex
62
5
10
-160.326222
20
520.175648
0
VERTEX
5
76e
100
AcDbEntity
8
1
100
AcDbVertex
100
AcDb2dVertex
62
5
10
-160.052785
20
520.019398
0
VERTEX
5
76f
100
AcDbEntity
8
1
100
AcDbVertex
100
AcDb2dVertex
62
5
10
-159.974660
20
519.902210
0
VERTEX
5
770
100
AcDbEntity
8
1
100
AcDbVertex
100
AcDb2dVertex
62
5
10
-159.974660
20
519.785023
0
VERTEX
5
771
100
AcDbEntity
8
1
100
AcDbVertex
100
AcDb2dVertex
62
5
10
-160.052785
20
519.667835
0
VERTEX
5
772
100
AcDbEntity
8
1
100
AcDbVertex
100
AcDb2dVertex
62
5
10
-160.169972
20
519.628773
0
VERTEX
5
773
100
AcDbEntity
8
1
100
AcDbVertex
100
AcDb2dVertex
62
5
10
-160.248097
20
519.628773
0
VERTEX
5
774
100
AcDbEntity
8
1
100
AcDbVertex
100
AcDb2dVertex
62
5
10
-160.365285
20
519.706898
0
VERTEX
5
775
100
AcDbEntity
8
1
100
AcDbVertex
100
AcDb2dVertex
62
5
10
-160.404347
20
519.863148
0
SEQEND
5
776
100
AcDbEntity
8
1
0
POLYLINE
5
777
100
AcDbEntity
8
1
6
CONTINUOUS
62
5
100
AcDb2dPolyline
66
1
10
0.0
20
0.0
30
0.0
70
0
0
VERTEX
5
778
100
AcDbEntity
8
1
100
AcDbVertex
100
AcDb2dVertex
62
5
10
-159.779347
20
520.566273
0
VERTEX
5
779
100
AcDbEntity
8
1
100
AcDbVertex
100
AcDb2dVertex
62
5
10
-159.662160
20
519.628773
0
VERTEX
5
77a
100
AcDbEntity
8
1
100
AcDbVertex
100
AcDb2dVertex
62
5
10
-159.544972
20
520.566273
0
VERTEX
5
77b
100
AcDbEntity
8
1
100
AcDbVertex
100
AcDb2dVertex
62
5
10
-159.427785
20
519.628773
0
VERTEX
5
77c
100
AcDbEntity
8
1
100
AcDbVertex
100
AcDb2dVertex
62
5
10
-159.310597
20
520.566273
0
SEQEND
5
77d
100
AcDbEntity
8
1
0
ARC
5
77e
100
AcDbEntity
8
1
100
AcDbCircle
6
CONTINUOUS
62
5
10
-155.034035
20
511.578773
40
0.750000
100
AcDbArc
50
-89.999999
51
0.000000
0
LINE
5
77f
100
AcDbEntity
8
1
100
AcDbLine
6
CONTINUOUS
62
5
10
-154.284035
20
511.578773
11
-154.284035
21
518.803773
0
ARC
5
780
100
AcDbEntity
8
1
100
AcDbCircle
6
CONTINUOUS
62
5
10
-155.034035
20
518.803773
40
0.750000
100
AcDbArc
50
0.000000
51
89.999999
0
LINE
5
781
100
AcDbEntity
8
1
100
AcDbLine
6
CONTINUOUS
62
5
10
-155.034035
20
519.553773
11
-162.259035
21
519.553773
0
ARC
5
782
100
AcDbEntity
8
1
100
AcDbCircle
6
CONTINUOUS
62
5
10
-162.259035
20
518.803773
40
0.750000
100
AcDbArc
50
89.999999
51
179.999998
0
LINE
5
783
100
AcDbEntity
8
1
100
AcDbLine
6
CONTINUOUS
62
5
10
-163.009035
20
518.803773
11
-163.009035
21
511.578773
0
ARC
5
784
100
AcDbEntity
8
1
100
AcDbCircle
6
CONTINUOUS
62
5
10
-162.259035
20
511.578773
40
0.750000
100
AcDbArc
50
179.999998
51
-89.999999
0
LINE
5
785
100
AcDbEntity
8
1
100
AcDbLine
6
CONTINUOUS
62
5
10
-162.259035
20
510.828773
11
-155.034035
21
510.828773
0
POLYLINE
5
786
100
AcDbEntity
8
1
6
CONTINUOUS
62
5
100
AcDb2dPolyline
66
1
10
0.0
20
0.0
30
0.0
70
1
0
VERTEX
5
787
100
AcDbEntity
8
1
100
AcDbVertex
100
AcDb2dVertex
62
5
10
-157.709035
20
520.566273
0
VERTEX
5
788
100
AcDbEntity
8
1
100
AcDbVertex
100
AcDb2dVertex
62
5
10
-157.630910
20
520.566273
0
VERTEX
5
789
100
AcDbEntity
8
1
100
AcDbVertex
100
AcDb2dVertex
62
5
10
-157.552785
20
520.527210
0
VERTEX
5
78a
100
AcDbEntity
8
1
100
AcDbVertex
100
AcDb2dVertex
62
5
10
-157.513722
20
520.488148
0
VERTEX
5
78b
100
AcDbEntity
8
1
100
AcDbVertex
100
AcDb2dVertex
62
5
10
-157.474660
20
520.331898
0
VERTEX
5
78c
100
AcDbEntity
8
1
100
AcDbVertex
100
AcDb2dVertex
62
5
10
-157.474660
20
519.863148
0
VERTEX
5
78d
100
AcDbEntity
8
1
100
AcDbVertex
100
AcDb2dVertex
62
5
10
-157.513722
20
519.706898
0
VERTEX
5
78e
100
AcDbEntity
8
1
100
AcDbVertex
100
AcDb2dVertex
62
5
10
-157.552785
20
519.667835
0
VERTEX
5
78f
100
AcDbEntity
8
1
100
AcDbVertex
100
AcDb2dVertex
62
5
10
-157.630910
20
519.628773
0
VERTEX
5
790
100
AcDbEntity
8
1
100
AcDbVertex
100
AcDb2dVertex
62
5
10
-157.709035
20
519.628773
0
VERTEX
5
791
100
AcDbEntity
8
1
100
AcDbVertex
100
AcDb2dVertex
62
5
10
-157.787160
20
519.667835
0
VERTEX
5
792
100
AcDbEntity
8
1
100
AcDbVertex
100
AcDb2dVertex
62
5
10
-157.826222
20
519.706898
0
VERTEX
5
793
100
AcDbEntity
8
1
100
AcDbVertex
100
AcDb2dVertex
62
5
10
-157.865285
20
519.863148
0
VERTEX
5
794
100
AcDbEntity
8
1
100
AcDbVertex
100
AcDb2dVertex
62
5
10
-157.865285
20
520.331898
0
VERTEX
5
795
100
AcDbEntity
8
1
100
AcDbVertex
100
AcDb2dVertex
62
5
10
-157.826222
20
520.488148
0
VERTEX
5
796
100
AcDbEntity
8
1
100
AcDbVertex
100
AcDb2dVertex
62
5
10
-157.787160
20
520.527210
0
VERTEX
5
797
100
AcDbEntity
8
1
100
AcDbVertex
100
AcDb2dVertex
62
5
10
-157.709035
20
520.566273
0
SEQEND
5
798
100
AcDbEntity
8
1
0
LINE
5
799
100
AcDbEntity
8
1
100
AcDbLine
6
CONTINUOUS
62
5
10
-157.240285
20
520.566273
11
-156.849660
21
519.628773
0
LINE
5
79a
100
AcDbEntity
8
1
100
AcDbLine
6
CONTINUOUS
62
5
10
-156.849660
20
520.566273
11
-157.240285
21
519.628773
0
POLYLINE
5
79b
100
AcDbEntity
8
1
6
CONTINUOUS
62
5
100
AcDb2dPolyline
66
1
10
0.0
20
0.0
30
0.0
70
1
0
VERTEX
5
79c
100
AcDbEntity
8
1
100
AcDbVertex
100
AcDb2dVertex
62
5
10
-194.396535
20
555.631171
0
VERTEX
5
79d
100
AcDbEntity
8
1
100
AcDbVertex
100
AcDb2dVertex
62
5
10
-193.996535
20
555.631171
0
VERTEX
5
79e
100
AcDbEntity
8
1
100
AcDbVertex
100
AcDb2dVertex
62
5
10
-193.996535
20
506.966273
0
VERTEX
5
79f
100
AcDbEntity
8
1
100
AcDbVertex
100
AcDb2dVertex
62
5
10
-194.396535
20
506.966273
0
SEQEND
5
7a0
100
AcDbEntity
8
1
0
POLYLINE
5
7a1
100
AcDbEntity
8
1
6
CONTINUOUS
62
5
100
AcDb2dPolyline
66
1
10
0.0
20
0.0
30
0.0
70
0
0
VERTEX
5
7a2
100
AcDbEntity
8
1
100
AcDbVertex
100
AcDb2dVertex
62
5
10
-140.224660
20
523.613148
0
VERTEX
5
7a3
100
AcDbEntity
8
1
100
AcDbVertex
100
AcDb2dVertex
62
5
10
-140.107472
20
523.691273
0
VERTEX
5
7a4
100
AcDbEntity
8
1
100
AcDbVertex
100
AcDb2dVertex
62
5
10
-140.107472
20
522.753773
0
SEQEND
5
7a5
100
AcDbEntity
8
1
0
LINE
5
7a6
100
AcDbEntity
8
1
100
AcDbLine
6
CONTINUOUS
62
5
10
-140.185597
20
522.753773
11
-140.029347
21
522.753773
0
LINE
5
7a7
100
AcDbEntity
8
1
100
AcDbLine
6
CONTINUOUS
62
5
10
-139.677785
20
515.822523
11
-139.287160
21
515.822523
0
POLYLINE
5
7a8
100
AcDbEntity
8
1
6
CONTINUOUS
62
5
100
AcDb2dPolyline
66
1
10
0.0
20
0.0
30
0.0
70
1
0
VERTEX
5
7a9
100
AcDbEntity
8
1
100
AcDbVertex
100
AcDb2dVertex
62
5
10
-140.146535
20
516.291273
0
VERTEX
5
7aa
100
AcDbEntity
8
1
100
AcDbVertex
100
AcDb2dVertex
62
5
10
-140.068410
20
516.291273
0
VERTEX
5
7ab
100
AcDbEntity
8
1
100
AcDbVertex
100
AcDb2dVertex
62
5
10
-139.990285
20
516.252210
0
VERTEX
5
7ac
100
AcDbEntity
8
1
100
AcDbVertex
100
AcDb2dVertex
62
5
10
-139.951222
20
516.213148
0
VERTEX
5
7ad
100
AcDbEntity
8
1
100
AcDbVertex
100
AcDb2dVertex
62
5
10
-139.912160
20
516.056898
0
VERTEX
5
7ae
100
AcDbEntity
8
1
100
AcDbVertex
100
AcDb2dVertex
62
5
10
-139.912160
20
515.588148
0
VERTEX
5
7af
100
AcDbEntity
8
1
100
AcDbVertex
100
AcDb2dVertex
62
5
10
-139.951222
20
515.431898
0
VERTEX
5
7b0
100
AcDbEntity
8
1
100
AcDbVertex
100
AcDb2dVertex
62
5
10
-139.990285
20
515.392835
0
VERTEX
5
7b1
100
AcDbEntity
8
1
100
AcDbVertex
100
AcDb2dVertex
62
5
10
-140.068410
20
515.353773
0
VERTEX
5
7b2
100
AcDbEntity
8
1
100
AcDbVertex
100
AcDb2dVertex
62
5
10
-140.146535
20
515.353773
0
VERTEX
5
7b3
100
AcDbEntity
8
1
100
AcDbVertex
100
AcDb2dVertex
62
5
10
-140.224660
20
515.392835
0
VERTEX
5
7b4
100
AcDbEntity
8
1
100
AcDbVertex
100
AcDb2dVertex
62
5
10
-140.263722
20
515.431898
0
VERTEX
5
7b5
100
AcDbEntity
8
1
100
AcDbVertex
100
AcDb2dVertex
62
5
10
-140.302785
20
515.588148
0
VERTEX
5
7b6
100
AcDbEntity
8
1
100
AcDbVertex
100
AcDb2dVertex
62
5
10
-140.302785
20
516.056898
0
VERTEX
5
7b7
100
AcDbEntity
8
1
100
AcDbVertex
100
AcDb2dVertex
62
5
10
-140.263722
20
516.213148
0
VERTEX
5
7b8
100
AcDbEntity
8
1
100
AcDbVertex
100
AcDb2dVertex
62
5
10
-140.224660
20
516.252210
0
VERTEX
5
7b9
100
AcDbEntity
8
1
100
AcDbVertex
100
AcDb2dVertex
62
5
10
-140.146535
20
516.291273
0
SEQEND
5
7ba
100
AcDbEntity
8
1
0
ARC
5
7bb
100
AcDbEntity
8
1
100
AcDbCircle
6
CONTINUOUS
62
5
10
-146.146535
20
525.441273
40
0.500000
100
AcDbArc
50
179.999998
51
-89.999999
0
POLYLINE
5
7bc
100
AcDbEntity
8
1
6
CONTINUOUS
62
5
100
AcDb2dPolyline
66
1
10
0.0
20
0.0
30
0.0
70
0
0
VERTEX
5
7bd
100
AcDbEntity
8
1
100
AcDbVertex
100
AcDb2dVertex
62
5
10
-146.146535
20
524.941273
0
VERTEX
5
7be
100
AcDbEntity
8
1
100
AcDbVertex
100
AcDb2dVertex
62
5
10
-141.396535
20
524.941273
0
VERTEX
5
7bf
100
AcDbEntity
8
1
100
AcDbVertex
100
AcDb2dVertex
62
5
10
-136.646535
20
524.941273
0
SEQEND
5
7c0
100
AcDbEntity
8
1
0
ARC
5
7c1
100
AcDbEntity
8
1
100
AcDbCircle
6
CONTINUOUS
62
5
10
-136.646535
20
525.441273
40
0.500000
100
AcDbArc
50
-89.999999
51
0.000000
0
POLYLINE
5
7c2
100
AcDbEntity
8
1
6
CONTINUOUS
62
5
100
AcDb2dPolyline
66
1
10
0.0
20
0.0
30
0.0
70
0
0
VERTEX
5
7c3
100
AcDbEntity
8
1
100
AcDbVertex
100
AcDb2dVertex
62
5
10
-136.146535
20
525.441273
0
VERTEX
5
7c4
100
AcDbEntity
8
1
100
AcDbVertex
100
AcDb2dVertex
62
5
10
-136.146535
20
526.041273
0
VERTEX
5
7c5
100
AcDbEntity
8
1
100
AcDbVertex
100
AcDb2dVertex
62
5
10
-136.073715
20
526.041273
0
SEQEND
5
7c6
100
AcDbEntity
8
1
0
POLYLINE
5
7c7
100
AcDbEntity
8
1
6
CONTINUOUS
62
5
100
AcDb2dPolyline
66
1
10
0.0
20
0.0
30
0.0
70
0
0
VERTEX
5
7c8
100
AcDbEntity
8
1
100
AcDbVertex
100
AcDb2dVertex
62
5
10
-146.719355
20
526.041273
0
VERTEX
5
7c9
100
AcDbEntity
8
1
100
AcDbVertex
100
AcDb2dVertex
62
5
10
-146.646535
20
526.041273
0
VERTEX
5
7ca
100
AcDbEntity
8
1
100
AcDbVertex
100
AcDb2dVertex
62
5
10
-146.646535
20
525.441273
0
SEQEND
5
7cb
100
AcDbEntity
8
1
0
ARC
5
7cc
100
AcDbEntity
8
1
100
AcDbCircle
6
CONTINUOUS
62
5
10
-136.646535
20
527.441273
40
0.500000
100
AcDbArc
50
0.000000
51
89.999999
0
POLYLINE
5
7cd
100
AcDbEntity
8
1
6
CONTINUOUS
62
5
100
AcDb2dPolyline
66
1
10
0.0
20
0.0
30
0.0
70
0
0
VERTEX
5
7ce
100
AcDbEntity
8
1
100
AcDbVertex
100
AcDb2dVertex
62
5
10
-136.646535
20
527.941273
0
VERTEX
5
7cf
100
AcDbEntity
8
1
100
AcDbVertex
100
AcDb2dVertex
62
5
10
-141.396535
20
527.941273
0
VERTEX
5
7d0
100
AcDbEntity
8
1
100
AcDbVertex
100
AcDb2dVertex
62
5
10
-146.146535
20
527.941273
0
SEQEND
5
7d1
100
AcDbEntity
8
1
0
ARC
5
7d2
100
AcDbEntity
8
1
100
AcDbCircle
6
CONTINUOUS
62
5
10
-146.146535
20
527.441273
40
0.500000
100
AcDbArc
50
89.999999
51
179.999998
0
POLYLINE
5
7d3
100
AcDbEntity
8
1
6
CONTINUOUS
62
5
100
AcDb2dPolyline
66
1
10
0.0
20
0.0
30
0.0
70
0
0
VERTEX
5
7d4
100
AcDbEntity
8
1
100
AcDbVertex
100
AcDb2dVertex
62
5
10
-146.646535
20
527.441273
0
VERTEX
5
7d5
100
AcDbEntity
8
1
100
AcDbVertex
100
AcDb2dVertex
62
5
10
-146.646535
20
526.841273
0
VERTEX
5
7d6
100
AcDbEntity
8
1
100
AcDbVertex
100
AcDb2dVertex
62
5
10
-146.719355
20
526.841273
0
SEQEND
5
7d7
100
AcDbEntity
8
1
0
POLYLINE
5
7d8
100
AcDbEntity
8
1
6
CONTINUOUS
62
5
100
AcDb2dPolyline
66
1
10
0.0
20
0.0
30
0.0
70
0
0
VERTEX
5
7d9
100
AcDbEntity
8
1
100
AcDbVertex
100
AcDb2dVertex
62
5
10
-136.073715
20
526.841273
0
VERTEX
5
7da
100
AcDbEntity
8
1
100
AcDbVertex
100
AcDb2dVertex
62
5
10
-136.146535
20
526.841273
0
VERTEX
5
7db
100
AcDbEntity
8
1
100
AcDbVertex
100
AcDb2dVertex
62
5
10
-136.146535
20
527.441273
0
SEQEND
5
7dc
100
AcDbEntity
8
1
0
ARC
5
7dd
100
AcDbEntity
8
1
100
AcDbCircle
6
CONTINUOUS
62
5
10
-145.515643
20
525.963773
40
0.500000
100
AcDbArc
50
-169.999998
51
-89.999999
0
LINE
5
7de
100
AcDbEntity
8
1
100
AcDbLine
6
CONTINUOUS
62
5
10
-145.515643
20
525.463773
11
-137.277427
21
525.463773
0
ARC
5
7df
100
AcDbEntity
8
1
100
AcDbCircle
6
CONTINUOUS
62
5
10
-137.277427
20
525.963773
40
0.500000
100
AcDbArc
50
-89.999999
51
-10.000000
0
LINE
5
7e0
100
AcDbEntity
8
1
100
AcDbLine
6
CONTINUOUS
62
5
10
-136.785023
20
525.876949
11
-136.616631
21
526.831949
0
ARC
5
7e1
100
AcDbEntity
8
1
100
AcDbCircle
6
CONTINUOUS
62
5
10
-137.109035
20
526.918773
40
0.500000
100
AcDbArc
50
-10.000000
51
89.999999
0
LINE
5
7e2
100
AcDbEntity
8
1
100
AcDbLine
6
CONTINUOUS
62
5
10
-137.109035
20
527.418773
11
-145.684035
21
527.418773
0
ARC
5
7e3
100
AcDbEntity
8
1
100
AcDbCircle
6
CONTINUOUS
62
5
10
-145.684035
20
526.918773
40
0.500000
100
AcDbArc
50
89.999999
51
-169.999998
0
LINE
5
7e4
100
AcDbEntity
8
1
100
AcDbLine
6
CONTINUOUS
62
5
10
-146.176439
20
526.831949
11
-146.008046
21
525.876949
0
ARC
5
7e5
100
AcDbEntity
8
1
100
AcDbCircle
6
CONTINUOUS
62
5
10
-133.284540
20
512.866273
40
0.500000
100
AcDbArc
50
-89.999999
51
-10.000000
0
LINE
5
7e6
100
AcDbEntity
8
1
100
AcDbLine
6
CONTINUOUS
62
5
10
-133.284540
20
512.366273
11
-145.758529
21
512.366273
0
ARC
5
7e7
100
AcDbEntity
8
1
100
AcDbCircle
6
CONTINUOUS
62
5
10
-145.758529
20
512.866273
40
0.500000
100
AcDbArc
50
-169.999998
51
-89.999999
0
LINE
5
7e8
100
AcDbEntity
8
1
100
AcDbLine
6
CONTINUOUS
62
5
10
-146.250933
20
512.779449
11
-146.442689
21
513.866949
0
ARC
5
7e9
100
AcDbEntity
8
1
100
AcDbCircle
6
CONTINUOUS
62
5
10
-145.950285
20
513.953773
40
0.500000
100
AcDbArc
50
89.999999
51
-169.999998
0
LINE
5
7ea
100
AcDbEntity
8
1
100
AcDbLine
6
CONTINUOUS
62
5
10
-145.950285
20
514.453773
11
-133.092785
21
514.453773
0
ARC
5
7eb
100
AcDbEntity
8
1
100
AcDbCircle
6
CONTINUOUS
62
5
10
-133.092785
20
513.953773
40
0.500000
100
AcDbArc
50
-10.000000
51
89.999999
0
LINE
5
7ec
100
AcDbEntity
8
1
100
AcDbLine
6
CONTINUOUS
62
5
10
-132.600381
20
513.866949
11
-132.792137
21
512.779449
0
ARC
5
7ed
100
AcDbEntity
8
1
100
AcDbCircle
6
CONTINUOUS
62
5
10
-137.217040
20
519.641273
40
0.500000
100
AcDbArc
50
-89.999999
51
-10.000000
0
LINE
5
7ee
100
AcDbEntity
8
1
100
AcDbLine
6
CONTINUOUS
62
5
10
-137.217040
20
519.141273
11
-145.576029
21
519.141273
0
ARC
5
7ef
100
AcDbEntity
8
1
100
AcDbCircle
6
CONTINUOUS
62
5
10
-145.576029
20
519.641273
40
0.500000
100
AcDbArc
50
-169.999998
51
-89.999999
0
LINE
5
7f0
100
AcDbEntity
8
1
100
AcDbLine
6
CONTINUOUS
62
5
10
-146.068433
20
519.554449
11
-146.260189
21
520.641949
0
ARC
5
7f1
100
AcDbEntity
8
1
100
AcDbCircle
6
CONTINUOUS
62
5
10
-145.767785
20
520.728773
40
0.500000
100
AcDbArc
50
89.999999
51
-169.999998
0
LINE
5
7f2
100
AcDbEntity
8
1
100
AcDbLine
6
CONTINUOUS
62
5
10
-145.767785
20
521.228773
11
-137.025285
21
521.228773
0
ARC
5
7f3
100
AcDbEntity
8
1
100
AcDbCircle
6
CONTINUOUS
62
5
10
-137.025285
20
520.728773
40
0.500000
100
AcDbArc
50
-10.000000
51
89.999999
0
LINE
5
7f4
100
AcDbEntity
8
1
100
AcDbLine
6
CONTINUOUS
62
5
10
-136.532881
20
520.641949
11
-136.724637
21
519.554449
0
ARC
5
7f5
100
AcDbEntity
8
1
100
AcDbCircle
6
CONTINUOUS
62
5
10
-146.396535
20
512.410023
40
0.500000
100
AcDbArc
50
179.999998
51
-89.999999
0
LINE
5
7f6
100
AcDbEntity
8
1
100
AcDbLine
6
CONTINUOUS
62
5
10
-146.396535
20
511.910023
11
-132.646535
21
511.910023
0
ARC
5
7f7
100
AcDbEntity
8
1
100
AcDbCircle
6
CONTINUOUS
62
5
10
-132.646535
20
512.410023
40
0.500000
100
AcDbArc
50
-89.999999
51
0.000000
0
POLYLINE
5
7f8
100
AcDbEntity
8
1
6
CONTINUOUS
62
5
100
AcDb2dPolyline
66
1
10
0.0
20
0.0
30
0.0
70
0
0
VERTEX
5
7f9
100
AcDbEntity
8
1
100
AcDbVertex
100
AcDb2dVertex
62
5
10
-132.146535
20
512.410023
0
VERTEX
5
7fa
100
AcDbEntity
8
1
100
AcDbVertex
100
AcDb2dVertex
62
5
10
-132.146535
20
513.010023
0
VERTEX
5
7fb
100
AcDbEntity
8
1
100
AcDbVertex
100
AcDb2dVertex
62
5
10
-132.074783
20
513.010023
0
SEQEND
5
7fc
100
AcDbEntity
8
1
0
POLYLINE
5
7fd
100
AcDbEntity
8
1
6
CONTINUOUS
62
5
100
AcDb2dPolyline
66
1
10
0.0
20
0.0
30
0.0
70
0
0
VERTEX
5
7fe
100
AcDbEntity
8
1
100
AcDbVertex
100
AcDb2dVertex
62
5
10
-146.968287
20
513.010023
0
VERTEX
5
7ff
100
AcDbEntity
8
1
100
AcDbVertex
100
AcDb2dVertex
62
5
10
-146.896535
20
513.010023
0
VERTEX
5
800
100
AcDbEntity
8
1
100
AcDbVertex
100
AcDb2dVertex
62
5
10
-146.896535
20
512.410023
0
SEQEND
5
801
100
AcDbEntity
8
1
0
ARC
5
802
100
AcDbEntity
8
1
100
AcDbCircle
6
CONTINUOUS
62
5
10
-132.646535
20
514.410023
40
0.500000
100
AcDbArc
50
0.000000
51
89.999999
0
LINE
5
803
100
AcDbEntity
8
1
100
AcDbLine
6
CONTINUOUS
62
5
10
-132.646535
20
514.910023
11
-146.396535
21
514.910023
0
ARC
5
804
100
AcDbEntity
8
1
100
AcDbCircle
6
CONTINUOUS
62
5
10
-146.396535
20
514.410023
40
0.500000
100
AcDbArc
50
89.999999
51
179.999998
0
POLYLINE
5
805
100
AcDbEntity
8
1
6
CONTINUOUS
62
5
100
AcDb2dPolyline
66
1
10
0.0
20
0.0
30
0.0
70
0
0
VERTEX
5
806
100
AcDbEntity
8
1
100
AcDbVertex
100
AcDb2dVertex
62
5
10
-146.896535
20
514.410023
0
VERTEX
5
807
100
AcDbEntity
8
1
100
AcDbVertex
100
AcDb2dVertex
62
5
10
-146.896535
20
513.810023
0
VERTEX
5
808
100
AcDbEntity
8
1
100
AcDbVertex
100
AcDb2dVertex
62
5
10
-146.968287
20
513.810023
0
SEQEND
5
809
100
AcDbEntity
8
1
0
POLYLINE
5
80a
100
AcDbEntity
8
1
6
CONTINUOUS
62
5
100
AcDb2dPolyline
66
1
10
0.0
20
0.0
30
0.0
70
0
0
VERTEX
5
80b
100
AcDbEntity
8
1
100
AcDbVertex
100
AcDb2dVertex
62
5
10
-132.074783
20
513.810023
0
VERTEX
5
80c
100
AcDbEntity
8
1
100
AcDbVertex
100
AcDb2dVertex
62
5
10
-132.146535
20
513.810023
0
VERTEX
5
80d
100
AcDbEntity
8
1
100
AcDbVertex
100
AcDb2dVertex
62
5
10
-132.146535
20
514.410023
0
SEQEND
5
80e
100
AcDbEntity
8
1
0
ARC
5
80f
100
AcDbEntity
8
1
100
AcDbCircle
6
CONTINUOUS
62
5
10
-135.146535
20
518.628773
40
0.500000
100
AcDbArc
50
-89.999999
51
0.000000
0
LINE
5
810
100
AcDbEntity
8
1
100
AcDbLine
6
CONTINUOUS
62
5
10
-134.646535
20
518.628773
11
-134.646535
21
521.753773
0
ARC
5
811
100
AcDbEntity
8
1
100
AcDbCircle
6
CONTINUOUS
62
5
10
-135.146535
20
521.753773
40
0.500000
100
AcDbArc
50
0.000000
51
89.999999
0
LINE
5
812
100
AcDbEntity
8
1
100
AcDbLine
6
CONTINUOUS
62
5
10
-135.146535
20
522.253773
11
-147.646535
21
522.253773
0
ARC
5
813
100
AcDbEntity
8
1
100
AcDbCircle
6
CONTINUOUS
62
5
10
-147.646535
20
521.753773
40
0.500000
100
AcDbArc
50
89.999999
51
179.999998
0
LINE
5
814
100
AcDbEntity
8
1
100
AcDbLine
6
CONTINUOUS
62
5
10
-148.146535
20
521.753773
11
-148.146535
21
518.628773
0
ARC
5
815
100
AcDbEntity
8
1
100
AcDbCircle
6
CONTINUOUS
62
5
10
-147.646535
20
518.628773
40
0.500000
100
AcDbArc
50
179.999998
51
-89.999999
0
LINE
5
816
100
AcDbEntity
8
1
100
AcDbLine
6
CONTINUOUS
62
5
10
-147.646535
20
518.128773
11
-135.146535
21
518.128773
0
ARC
5
817
100
AcDbEntity
8
1
100
AcDbCircle
6
CONTINUOUS
62
5
10
-135.271535
20
521.253773
40
0.500000
100
AcDbArc
50
0.000000
51
89.999999
0
LINE
5
818
100
AcDbEntity
8
1
100
AcDbLine
6
CONTINUOUS
62
5
10
-135.271535
20
521.753773
11
-147.521535
21
521.753773
0
ARC
5
819
100
AcDbEntity
8
1
100
AcDbCircle
6
CONTINUOUS
62
5
10
-147.521535
20
521.253773
40
0.500000
100
AcDbArc
50
89.999999
51
179.999998
0
LINE
5
81a
100
AcDbEntity
8
1
100
AcDbLine
6
CONTINUOUS
62
5
10
-148.021535
20
521.253773
11
-148.021535
21
519.116273
0
ARC
5
81b
100
AcDbEntity
8
1
100
AcDbCircle
6
CONTINUOUS
62
5
10
-147.521535
20
519.116273
40
0.500000
100
AcDbArc
50
179.999998
51
-89.999999
0
LINE
5
81c
100
AcDbEntity
8
1
100
AcDbLine
6
CONTINUOUS
62
5
10
-147.521535
20
518.616273
11
-135.271535
21
518.616273
0
ARC
5
81d
100
AcDbEntity
8
1
100
AcDbCircle
6
CONTINUOUS
62
5
10
-135.271535
20
519.116273
40
0.500000
100
AcDbArc
50
-89.999999
51
0.000000
0
LINE
5
81e
100
AcDbEntity
8
1
100
AcDbLine
6
CONTINUOUS
62
5
10
-134.771535
20
519.116273
11
-134.771535
21
521.253773
0
ARC
5
81f
100
AcDbEntity
8
1
100
AcDbCircle
6
CONTINUOUS
62
5
10
-193.896535
20
506.941273
40
0.500000
100
AcDbArc
50
179.999998
51
-89.999999
0
LINE
5
820
100
AcDbEntity
8
1
100
AcDbLine
6
CONTINUOUS
62
5
10
-193.896535
20
506.441273
11
-95.446535
21
506.441273
0
ARC
5
821
100
AcDbEntity
8
1
100
AcDbCircle
6
CONTINUOUS
62
5
10
-95.446535
20
506.691273
40
0.250000
100
AcDbArc
50
-89.999999
51
-0.000000
0
LINE
5
822
100
AcDbEntity
8
1
100
AcDbLine
6
CONTINUOUS
62
5
10
-95.196535
20
506.691273
11
-95.196535
21
555.516273
0
ARC
5
823
100
AcDbEntity
8
1
100
AcDbCircle
6
CONTINUOUS
62
5
10
-95.321535
20
555.516273
40
0.125000
100
AcDbArc
50
0.000000
51
89.999999
0
LINE
5
824
100
AcDbEntity
8
1
100
AcDbLine
6
CONTINUOUS
62
5
10
-95.321535
20
555.641273
11
-193.996535
21
555.641273
0
ARC
5
825
100
AcDbEntity
8
1
100
AcDbCircle
6
CONTINUOUS
62
5
10
-95.321535
20
555.516273
40
0.125000
100
AcDbArc
50
0.000000
51
89.999999
0
POLYLINE
5
826
100
AcDbEntity
8
1
6
CONTINUOUS
62
5
100
AcDb2dPolyline
66
1
10
0.0
20
0.0
30
0.0
70
0
0
VERTEX
5
827
100
AcDbEntity
8
1
100
AcDbVertex
100
AcDb2dVertex
62
5
10
-95.196535
20
555.516273
0
VERTEX
5
828
100
AcDbEntity
8
1
100
AcDbVertex
100
AcDb2dVertex
62
5
10
-95.196535
20
506.441273
0
VERTEX
5
829
100
AcDbEntity
8
1
100
AcDbVertex
100
AcDb2dVertex
62
5
10
-94.896535
20
506.441273
0
VERTEX
5
82a
100
AcDbEntity
8
1
100
AcDbVertex
100
AcDb2dVertex
62
5
10
-94.896535
20
555.516273
0
SEQEND
5
82b
100
AcDbEntity
8
1
0
ARC
5
82c
100
AcDbEntity
8
1
100
AcDbCircle
6
CONTINUOUS
62
5
10
-95.321535
20
555.516273
40
0.425000
100
AcDbArc
50
0.000000
51
89.999999
0
POLYLINE
5
82d
100
AcDbEntity
8
1
6
CONTINUOUS
62
5
100
AcDb2dPolyline
66
1
10
0.0
20
0.0
30
0.0
70
0
0
VERTEX
5
82e
100
AcDbEntity
8
1
100
AcDbVertex
100
AcDb2dVertex
62
5
10
-95.321535
20
555.941273
0
VERTEX
5
82f
100
AcDbEntity
8
1
100
AcDbVertex
100
AcDb2dVertex
62
5
10
-194.396535
20
555.941273
0
VERTEX
5
830
100
AcDbEntity
8
1
100
AcDbVertex
100
AcDb2dVertex
62
5
10
-194.396535
20
555.641273
0
VERTEX
5
831
100
AcDbEntity
8
1
100
AcDbVertex
100
AcDb2dVertex
62
5
10
-95.321535
20
555.641273
0
SEQEND
5
832
100
AcDbEntity
8
1
0
ARC
5
833
100
AcDbEntity
8
1
100
AcDbCircle
6
CONTINUOUS
62
5
10
-95.321535
20
555.516273
40
0.425000
100
AcDbArc
50
0.000000
51
89.999999
0
POLYLINE
5
834
100
AcDbEntity
8
1
6
CONTINUOUS
62
5
100
AcDb2dPolyline
66
1
10
0.0
20
0.0
30
0.0
70
0
0
VERTEX
5
835
100
AcDbEntity
8
1
100
AcDbVertex
100
AcDb2dVertex
62
5
10
-94.896535
20
555.516273
0
VERTEX
5
836
100
AcDbEntity
8
1
100
AcDbVertex
100
AcDb2dVertex
62
5
10
-94.896535
20
506.441273
0
VERTEX
5
837
100
AcDbEntity
8
1
100
AcDbVertex
100
AcDb2dVertex
62
5
10
-95.196535
20
506.441273
0
VERTEX
5
838
100
AcDbEntity
8
1
100
AcDbVertex
100
AcDb2dVertex
62
5
10
-95.196535
20
506.691273
0
SEQEND
5
839
100
AcDbEntity
8
1
0
POLYLINE
5
83a
100
AcDbEntity
8
1
6
CONTINUOUS
62
5
100
AcDb2dPolyline
66
1
10
0.0
20
0.0
30
0.0
70
0
0
VERTEX
5
83b
100
AcDbEntity
8
1
100
AcDbVertex
100
AcDb2dVertex
62
5
10
-194.396535
20
555.641273
0
VERTEX
5
83c
100
AcDbEntity
8
1
100
AcDbVertex
100
AcDb2dVertex
62
5
10
-194.396535
20
555.941273
0
VERTEX
5
83d
100
AcDbEntity
8
1
100
AcDbVertex
100
AcDb2dVertex
62
5
10
-95.321535
20
555.941273
0
SEQEND
5
83e
100
AcDbEntity
8
1
0
ARC
5
83f
100
AcDbEntity
8
1
100
AcDbCircle
6
DOT2
62
5
10
-86.855161
20
425.324508
40
12.233260
100
AcDbArc
50
156.589649
51
165.344019
0
ARC
5
840
100
AcDbEntity
8
1
100
AcDbCircle
6
DOT2
62
5
10
-97.815077
20
428.173503
40
0.909269
100
AcDbArc
50
164.290093
51
-140.939751
0
ARC
5
841
100
AcDbEntity
8
1
100
AcDbCircle
6
DOT2
62
5
10
-99.627474
20
426.701842
40
1.425376
100
AcDbArc
50
-12.859364
51
39.086881
0
ARC
5
842
100
AcDbEntity
8
1
100
AcDbCircle
6
DOT2
62
5
10
-101.695943
20
427.171476
40
3.546489
100
AcDbArc
50
-34.795218
51
-12.818967
0
LINE
5
843
100
AcDbEntity
8
1
100
AcDbLine
6
CONTINUOUS
62
5
10
-98.420007
20
425.812864
11
-104.684748
21
425.812860
0
LINE
5
844
100
AcDbEntity
8
1
100
AcDbLine
6
CONTINUOUS
62
5
10
-104.684748
20
429.312860
11
-98.420007
21
429.312865
0
LINE
5
845
100
AcDbEntity
8
1
100
AcDbLine
6
CONTINUOUS
62
5
10
-105.434749
20
430.937860
11
-105.434747
21
424.187859
0
LINE
5
846
100
AcDbEntity
8
1
100
AcDbLine
6
DOT2
62
5
10
-107.909069
20
455.437858
11
-109.571535
21
455.437858
0
LINE
5
847
100
AcDbEntity
8
1
100
AcDbLine
6
CONTINUOUS
62
5
10
-111.896063
20
449.062858
11
-111.896535
21
449.062858
0
LINE
5
848
100
AcDbEntity
8
1
100
AcDbLine
6
CONTINUOUS
62
5
10
-114.275304
20
443.934089
11
-115.017766
21
443.191627
0
LINE
5
849
100
AcDbEntity
8
1
100
AcDbLine
6
CONTINUOUS
62
5
10
-115.017766
20
443.934089
11
-114.275304
21
443.191627
0
CIRCLE
5
84a
100
AcDbEntity
8
1
100
AcDbCircle
6
CONTINUOUS
62
5
10
-114.646535
20
443.562858
40
1.175000
0
LINE
5
84b
100
AcDbEntity
8
1
100
AcDbLine
6
CONTINUOUS
62
5
10
-110.805128
20
425.687858
11
-109.713721
21
425.687858
0
LINE
5
84c
100
AcDbEntity
8
1
100
AcDbLine
6
CONTINUOUS
62
5
10
-109.713721
20
425.687858
11
-108.642159
21
425.687859
0
POLYLINE
5
84d
100
AcDbEntity
8
1
6
CONTINUOUS
62
5
100
AcDb2dPolyline
66
1
10
0.0
20
0.0
30
0.0
70
1
0
VERTEX
5
84e
100
AcDbEntity
8
1
100
AcDbVertex
100
AcDb2dVertex
62
5
10
-111.896535
20
422.737858
0
VERTEX
5
84f
100
AcDbEntity
8
1
100
AcDbVertex
100
AcDb2dVertex
62
5
10
-111.896535
20
420.387858
0
VERTEX
5
850
100
AcDbEntity
8
1
100
AcDbVertex
100
AcDb2dVertex
62
5
10
-111.796535
20
420.387858
0
VERTEX
5
851
100
AcDbEntity
8
1
100
AcDbVertex
100
AcDb2dVertex
62
5
10
-111.796535
20
422.737858
0
SEQEND
5
852
100
AcDbEntity
8
1
0
ARC
5
853
100
AcDbEntity
8
1
100
AcDbCircle
6
CONTINUOUS
62
5
10
-112.848916
20
421.562858
40
1.577381
100
AcDbArc
50
-48.150996
51
48.150996
0
ARC
5
854
100
AcDbEntity
8
1
100
AcDbCircle
6
CONTINUOUS
62
5
10
-116.190363
20
417.062858
40
0.250000
100
AcDbArc
50
-89.999999
51
-1.432096
0
POLYLINE
5
855
100
AcDbEntity
8
1
6
CONTINUOUS
62
5
100
AcDb2dPolyline
66
1
10
0.0
20
0.0
30
0.0
70
0
0
VERTEX
5
856
100
AcDbEntity
8
1
100
AcDbVertex
100
AcDb2dVertex
62
5
10
-115.940441
20
417.056610
0
VERTEX
5
857
100
AcDbEntity
8
1
100
AcDbVertex
100
AcDb2dVertex
62
5
10
-115.896535
20
418.812858
0
VERTEX
5
858
100
AcDbEntity
8
1
100
AcDbVertex
100
AcDb2dVertex
62
5
10
-121.396535
20
418.812858
0
VERTEX
5
859
100
AcDbEntity
8
1
100
AcDbVertex
100
AcDb2dVertex
62
5
10
-121.352629
20
417.056610
0
SEQEND
5
85a
100
AcDbEntity
8
1
0
ARC
5
85b
100
AcDbEntity
8
1
100
AcDbCircle
6
CONTINUOUS
62
5
10
-121.102707
20
417.062858
40
0.250000
100
AcDbArc
50
-178.567902
51
-89.999999
0
LINE
5
85c
100
AcDbEntity
8
1
100
AcDbLine
6
CONTINUOUS
62
5
10
-121.102707
20
416.812858
11
-116.190363
21
416.812858
0
POLYLINE
5
85d
100
AcDbEntity
8
1
6
CONTINUOUS
62
5
100
AcDb2dPolyline
66
1
10
0.0
20
0.0
30
0.0
70
1
0
VERTEX
5
85e
100
AcDbEntity
8
1
100
AcDbVertex
100
AcDb2dVertex
62
5
10
-118.471535
20
401.020822
0
VERTEX
5
85f
100
AcDbEntity
8
1
100
AcDbVertex
100
AcDb2dVertex
62
5
10
-120.821535
20
401.020822
0
VERTEX
5
860
100
AcDbEntity
8
1
100
AcDbVertex
100
AcDb2dVertex
62
5
10
-120.821535
20
401.120822
0
VERTEX
5
861
100
AcDbEntity
8
1
100
AcDbVertex
100
AcDb2dVertex
62
5
10
-118.471535
20
401.120822
0
SEQEND
5
862
100
AcDbEntity
8
1
0
ARC
5
863
100
AcDbEntity
8
1
100
AcDbCircle
6
CONTINUOUS
62
5
10
-119.646535
20
400.068441
40
1.577381
100
AcDbArc
50
41.849003
51
138.150995
0
LINE
5
864
100
AcDbEntity
8
1
100
AcDbLine
6
CONTINUOUS
62
5
10
-110.805129
20
429.437859
11
-109.713722
21
429.437859
0
LINE
5
865
100
AcDbEntity
8
1
100
AcDbLine
6
CONTINUOUS
62
5
10
-109.713721
20
429.437859
11
-108.642160
21
429.437859
0
LINE
5
866
100
AcDbEntity
8
1
100
AcDbLine
6
CONTINUOUS
62
5
10
-110.805129
20
429.662858
11
-110.805128
21
426.662858
0
LINE
5
867
100
AcDbEntity
8
1
100
AcDbLine
6
CONTINUOUS
62
5
10
-110.805128
20
424.462858
11
-110.805128
21
424.187858
0
LINE
5
868
100
AcDbEntity
8
1
100
AcDbLine
6
CONTINUOUS
62
5
10
-108.104575
20
430.937860
11
-108.104573
21
424.187859
0
LINE
5
869
100
AcDbEntity
8
1
100
AcDbLine
6
CONTINUOUS
62
5
10
-109.713721
20
425.462858
11
-109.713723
21
429.662858
0
POLYLINE
5
86a
100
AcDbEntity
8
1
6
CONTINUOUS
62
5
100
AcDb2dPolyline
66
1
10
0.0
20
0.0
30
0.0
70
0
0
VERTEX
5
86b
100
AcDbEntity
8
1
100
AcDbVertex
100
AcDb2dVertex
62
5
10
-111.896536
20
430.937859
0
VERTEX
5
86c
100
AcDbEntity
8
1
100
AcDbVertex
100
AcDb2dVertex
62
5
10
-111.896534
20
424.187858
0
VERTEX
5
86d
100
AcDbEntity
8
1
100
AcDbVertex
100
AcDb2dVertex
62
5
10
-109.713721
20
424.187858
0
VERTEX
5
86e
100
AcDbEntity
8
1
100
AcDbVertex
100
AcDb2dVertex
62
5
10
-109.713721
20
424.462858
0
SEQEND
5
86f
100
AcDbEntity
8
1
0
POLYLINE
5
870
100
AcDbEntity
8
1
6
CONTINUOUS
62
5
100
AcDb2dPolyline
66
1
10
0.0
20
0.0
30
0.0
70
1
0
VERTEX
5
871
100
AcDbEntity
8
1
100
AcDbVertex
100
AcDb2dVertex
62
5
10
-110.805129
20
424.187858
0
VERTEX
5
872
100
AcDbEntity
8
1
100
AcDbVertex
100
AcDb2dVertex
62
5
10
-109.713721
20
424.187858
0
VERTEX
5
873
100
AcDbEntity
8
1
100
AcDbVertex
100
AcDb2dVertex
62
5
10
-109.713721
20
430.937859
0
VERTEX
5
874
100
AcDbEntity
8
1
100
AcDbVertex
100
AcDb2dVertex
62
5
10
-110.805129
20
430.937859
0
SEQEND
5
875
100
AcDbEntity
8
1
0
POLYLINE
5
876
100
AcDbEntity
8
1
6
CONTINUOUS
62
5
100
AcDb2dPolyline
66
1
10
0.0
20
0.0
30
0.0
70
1
0
VERTEX
5
877
100
AcDbEntity
8
1
100
AcDbVertex
100
AcDb2dVertex
62
5
10
-111.896535
20
427.562858
0
VERTEX
5
878
100
AcDbEntity
8
1
100
AcDbVertex
100
AcDb2dVertex
62
5
10
-111.896535
20
430.937859
0
VERTEX
5
879
100
AcDbEntity
8
1
100
AcDbVertex
100
AcDb2dVertex
62
5
10
-110.805129
20
430.937859
0
VERTEX
5
87a
100
AcDbEntity
8
1
100
AcDbVertex
100
AcDb2dVertex
62
5
10
-110.805128
20
427.562858
0
VERTEX
5
87b
100
AcDbEntity
8
1
100
AcDbVertex
100
AcDb2dVertex
62
5
10
-110.805129
20
424.187857
0
VERTEX
5
87c
100
AcDbEntity
8
1
100
AcDbVertex
100
AcDb2dVertex
62
5
10
-111.896535
20
424.187857
0
SEQEND
5
87d
100
AcDbEntity
8
1
0
LINE
5
87e
100
AcDbEntity
8
1
100
AcDbLine
6
CONTINUOUS
62
5
10
-105.434749
20
429.437860
11
-108.104574
21
429.437859
0
LINE
5
87f
100
AcDbEntity
8
1
100
AcDbLine
6
CONTINUOUS
62
5
10
-108.104574
20
425.687859
11
-105.434748
21
425.687859
0
POLYLINE
5
880
100
AcDbEntity
8
1
6
CONTINUOUS
62
5
100
AcDb2dPolyline
66
1
10
0.0
20
0.0
30
0.0
70
1
0
VERTEX
5
881
100
AcDbEntity
8
1
100
AcDbVertex
100
AcDb2dVertex
62
5
10
-108.642160
20
430.937859
0
VERTEX
5
882
100
AcDbEntity
8
1
100
AcDbVertex
100
AcDb2dVertex
62
5
10
-108.642158
20
424.187858
0
VERTEX
5
883
100
AcDbEntity
8
1
100
AcDbVertex
100
AcDb2dVertex
62
5
10
-105.434747
20
424.187859
0
VERTEX
5
884
100
AcDbEntity
8
1
100
AcDbVertex
100
AcDb2dVertex
62
5
10
-104.684747
20
424.937860
0
VERTEX
5
885
100
AcDbEntity
8
1
100
AcDbVertex
100
AcDb2dVertex
62
5
10
-104.684749
20
430.187860
0
VERTEX
5
886
100
AcDbEntity
8
1
100
AcDbVertex
100
AcDb2dVertex
62
5
10
-105.434749
20
430.937860
0
SEQEND
5
887
100
AcDbEntity
8
1
0
CIRCLE
5
888
100
AcDbEntity
8
1
100
AcDbCircle
6
CONTINUOUS
62
5
10
-97.646535
20
376.270822
40
1.175000
0
LINE
5
889
100
AcDbEntity
8
1
100
AcDbLine
6
CONTINUOUS
62
5
10
-97.275304
20
375.899590
11
-98.017766
21
376.642053
0
LINE
5
88a
100
AcDbEntity
8
1
100
AcDbLine
6
CONTINUOUS
62
5
10
-98.017766
20
375.899590
11
-97.275304
21
376.642053
0
LINE
5
88b
100
AcDbEntity
8
1
100
AcDbLine
6
CONTINUOUS
62
5
10
-101.696725
20
365.158322
11
-101.696725
21
364.145822
0
POLYLINE
5
88c
100
AcDbEntity
8
1
6
CONTINUOUS
62
5
100
AcDb2dPolyline
66
1
10
0.0
20
0.0
30
0.0
70
0
0
VERTEX
5
88d
100
AcDbEntity
8
1
100
AcDbVertex
100
AcDb2dVertex
62
5
10
-101.312855
20
364.145822
0
VERTEX
5
88e
100
AcDbEntity
8
1
100
AcDbVertex
100
AcDb2dVertex
62
5
10
-101.312855
20
365.158322
0
VERTEX
5
88f
100
AcDbEntity
8
1
100
AcDbVertex
100
AcDb2dVertex
62
5
10
-100.604105
20
364.145822
0
VERTEX
5
890
100
AcDbEntity
8
1
100
AcDbVertex
100
AcDb2dVertex
62
5
10
-100.604105
20
365.158322
0
SEQEND
5
891
100
AcDbEntity
8
1
0
LINE
5
892
100
AcDbEntity
8
1
100
AcDbLine
6
CONTINUOUS
62
5
10
-104.034610
20
364.525509
11
-103.560001
21
364.525509
0
POLYLINE
5
893
100
AcDbEntity
8
1
6
CONTINUOUS
62
5
100
AcDb2dPolyline
66
1
10
0.0
20
0.0
30
0.0
70
0
0
VERTEX
5
894
100
AcDbEntity
8
1
100
AcDbVertex
100
AcDb2dVertex
62
5
10
-104.176993
20
364.145822
0
VERTEX
5
895
100
AcDbEntity
8
1
100
AcDbVertex
100
AcDb2dVertex
62
5
10
-103.797305
20
365.158322
0
VERTEX
5
896
100
AcDbEntity
8
1
100
AcDbVertex
100
AcDb2dVertex
62
5
10
-103.417618
20
364.145822
0
SEQEND
5
897
100
AcDbEntity
8
1
0
ARC
5
898
100
AcDbEntity
8
1
100
AcDbCircle
6
CONTINUOUS
62
5
10
-102.763810
20
364.727312
40
0.430312
100
AcDbArc
50
22.232145
51
-179.999998
0
LINE
5
899
100
AcDbEntity
8
1
100
AcDbLine
6
CONTINUOUS
62
5
10
-103.194123
20
364.727312
11
-103.194123
21
364.575437
0
ARC
5
89a
100
AcDbEntity
8
1
100
AcDbCircle
6
CONTINUOUS
62
5
10
-102.763810
20
364.575437
40
0.430313
100
AcDbArc
50
179.999998
51
-5.389489
0
POLYLINE
5
89b
100
AcDbEntity
8
1
6
CONTINUOUS
62
5
100
AcDb2dPolyline
66
1
10
0.0
20
0.0
30
0.0
70
1
0
VERTEX
5
89c
100
AcDbEntity
8
1
100
AcDbVertex
100
AcDb2dVertex
62
5
10
-99.473711
20
361.958315
0
VERTEX
5
89d
100
AcDbEntity
8
1
100
AcDbVertex
100
AcDb2dVertex
62
5
10
-102.396535
20
363.645808
0
VERTEX
5
89e
100
AcDbEntity
8
1
100
AcDbVertex
100
AcDb2dVertex
62
5
10
-105.319358
20
361.958315
0
VERTEX
5
89f
100
AcDbEntity
8
1
100
AcDbVertex
100
AcDb2dVertex
62
5
10
-105.319358
20
358.583329
0
VERTEX
5
8a0
100
AcDbEntity
8
1
100
AcDbVertex
100
AcDb2dVertex
62
5
10
-102.396535
20
356.895836
0
VERTEX
5
8a1
100
AcDbEntity
8
1
100
AcDbVertex
100
AcDb2dVertex
62
5
10
-99.473711
20
358.583329
0
SEQEND
5
8a2
100
AcDbEntity
8
1
0
CIRCLE
5
8a3
100
AcDbEntity
8
1
100
AcDbCircle
6
CONTINUOUS
62
5
10
-102.396535
20
360.270822
40
2.625000
0
CIRCLE
5
8a4
100
AcDbEntity
8
1
100
AcDbCircle
6
CONTINUOUS
62
5
10
-102.396535
20
360.270822
40
1.749993
0
ARC
5
8a5
100
AcDbEntity
8
1
100
AcDbCircle
6
CONTINUOUS
62
5
10
-104.852707
20
349.770822
40
0.250000
100
AcDbArc
50
-178.567902
51
-89.999999
0
POLYLINE
5
8a6
100
AcDbEntity
8
1
6
CONTINUOUS
62
5
100
AcDb2dPolyline
66
1
10
0.0
20
0.0
30
0.0
70
0
0
VERTEX
5
8a7
100
AcDbEntity
8
1
100
AcDbVertex
100
AcDb2dVertex
62
5
10
-105.102629
20
349.764574
0
VERTEX
5
8a8
100
AcDbEntity
8
1
100
AcDbVertex
100
AcDb2dVertex
62
5
10
-105.146535
20
351.520822
0
VERTEX
5
8a9
100
AcDbEntity
8
1
100
AcDbVertex
100
AcDb2dVertex
62
5
10
-99.646535
20
351.520822
0
VERTEX
5
8aa
100
AcDbEntity
8
1
100
AcDbVertex
100
AcDb2dVertex
62
5
10
-99.690441
20
349.764574
0
SEQEND
5
8ab
100
AcDbEntity
8
1
0
ARC
5
8ac
100
AcDbEntity
8
1
100
AcDbCircle
6
CONTINUOUS
62
5
10
-99.940363
20
349.770822
40
0.250000
100
AcDbArc
50
-89.999999
51
-1.432096
0
LINE
5
8ad
100
AcDbEntity
8
1
100
AcDbLine
6
CONTINUOUS
62
5
10
-99.940363
20
349.520822
11
-104.852707
21
349.520822
0
LINE
5
8ae
100
AcDbEntity
8
1
100
AcDbLine
6
CONTINUOUS
62
5
10
-119.802785
20
397.520822
11
-119.412160
21
397.520822
0
LINE
5
8af
100
AcDbEntity
8
1
100
AcDbLine
6
CONTINUOUS
62
5
10
-119.607472
20
397.520822
11
-119.607472
21
396.583322
0
POLYLINE
5
8b0
100
AcDbEntity
8
1
6
CONTINUOUS
62
5
100
AcDb2dPolyline
66
1
10
0.0
20
0.0
30
0.0
70
1
0
VERTEX
5
8b1
100
AcDbEntity
8
1
100
AcDbVertex
100
AcDb2dVertex
62
5
10
-120.271535
20
397.520822
0
VERTEX
5
8b2
100
AcDbEntity
8
1
100
AcDbVertex
100
AcDb2dVertex
62
5
10
-120.193410
20
397.520822
0
VERTEX
5
8b3
100
AcDbEntity
8
1
100
AcDbVertex
100
AcDb2dVertex
62
5
10
-120.115285
20
397.481759
0
VERTEX
5
8b4
100
AcDbEntity
8
1
100
AcDbVertex
100
AcDb2dVertex
62
5
10
-120.076222
20
397.442697
0
VERTEX
5
8b5
100
AcDbEntity
8
1
100
AcDbVertex
100
AcDb2dVertex
62
5
10
-120.037160
20
397.286447
0
VERTEX
5
8b6
100
AcDbEntity
8
1
100
AcDbVertex
100
AcDb2dVertex
62
5
10
-120.037160
20
396.817697
0
VERTEX
5
8b7
100
AcDbEntity
8
1
100
AcDbVertex
100
AcDb2dVertex
62
5
10
-120.076222
20
396.661447
0
VERTEX
5
8b8
100
AcDbEntity
8
1
100
AcDbVertex
100
AcDb2dVertex
62
5
10
-120.115285
20
396.622384
0
VERTEX
5
8b9
100
AcDbEntity
8
1
100
AcDbVertex
100
AcDb2dVertex
62
5
10
-120.193410
20
396.583322
0
VERTEX
5
8ba
100
AcDbEntity
8
1
100
AcDbVertex
100
AcDb2dVertex
62
5
10
-120.271535
20
396.583322
0
VERTEX
5
8bb
100
AcDbEntity
8
1
100
AcDbVertex
100
AcDb2dVertex
62
5
10
-120.349660
20
396.622384
0
VERTEX
5
8bc
100
AcDbEntity
8
1
100
AcDbVertex
100
AcDb2dVertex
62
5
10
-120.388722
20
396.661447
0
VERTEX
5
8bd
100
AcDbEntity
8
1
100
AcDbVertex
100
AcDb2dVertex
62
5
10
-120.427785
20
396.817697
0
VERTEX
5
8be
100
AcDbEntity
8
1
100
AcDbVertex
100
AcDb2dVertex
62
5
10
-120.427785
20
397.286447
0
VERTEX
5
8bf
100
AcDbEntity
8
1
100
AcDbVertex
100
AcDb2dVertex
62
5
10
-120.388722
20
397.442697
0
VERTEX
5
8c0
100
AcDbEntity
8
1
100
AcDbVertex
100
AcDb2dVertex
62
5
10
-120.349660
20
397.481759
0
VERTEX
5
8c1
100
AcDbEntity
8
1
100
AcDbVertex
100
AcDb2dVertex
62
5
10
-120.271535
20
397.520822
0
SEQEND
5
8c2
100
AcDbEntity
8
1
0
POLYLINE
5
8c3
100
AcDbEntity
8
1
6
CONTINUOUS
62
5
100
AcDb2dPolyline
66
1
10
0.0
20
0.0
30
0.0
70
0
0
VERTEX
5
8c4
100
AcDbEntity
8
1
100
AcDbVertex
100
AcDb2dVertex
62
5
10
-121.052785
20
396.583322
0
VERTEX
5
8c5
100
AcDbEntity
8
1
100
AcDbVertex
100
AcDb2dVertex
62
5
10
-121.052785
20
397.520822
0
VERTEX
5
8c6
100
AcDbEntity
8
1
100
AcDbVertex
100
AcDb2dVertex
62
5
10
-120.857472
20
396.583322
0
VERTEX
5
8c7
100
AcDbEntity
8
1
100
AcDbVertex
100
AcDb2dVertex
62
5
10
-120.662160
20
397.520822
0
VERTEX
5
8c8
100
AcDbEntity
8
1
100
AcDbVertex
100
AcDb2dVertex
62
5
10
-120.662160
20
396.583322
0
SEQEND
5
8c9
100
AcDbEntity
8
1
0
POLYLINE
5
8ca
100
AcDbEntity
8
1
6
CONTINUOUS
62
5
100
AcDb2dPolyline
66
1
10
0.0
20
0.0
30
0.0
70
0
0
VERTEX
5
8cb
100
AcDbEntity
8
1
100
AcDbVertex
100
AcDb2dVertex
62
5
10
-118.162160
20
397.325509
0
VERTEX
5
8cc
100
AcDbEntity
8
1
100
AcDbVertex
100
AcDb2dVertex
62
5
10
-118.201222
20
397.442697
0
VERTEX
5
8cd
100
AcDbEntity
8
1
100
AcDbVertex
100
AcDb2dVertex
62
5
10
-118.279347
20
397.520822
0
VERTEX
5
8ce
100
AcDbEntity
8
1
100
AcDbVertex
100
AcDb2dVertex
62
5
10
-118.396535
20
397.520822
0
VERTEX
5
8cf
100
AcDbEntity
8
1
100
AcDbVertex
100
AcDb2dVertex
62
5
10
-118.513722
20
397.403634
0
VERTEX
5
8d0
100
AcDbEntity
8
1
100
AcDbVertex
100
AcDb2dVertex
62
5
10
-118.552785
20
397.208322
0
VERTEX
5
8d1
100
AcDbEntity
8
1
100
AcDbVertex
100
AcDb2dVertex
62
5
10
-118.552785
20
396.895822
0
VERTEX
5
8d2
100
AcDbEntity
8
1
100
AcDbVertex
100
AcDb2dVertex
62
5
10
-118.513722
20
396.700509
0
VERTEX
5
8d3
100
AcDbEntity
8
1
100
AcDbVertex
100
AcDb2dVertex
62
5
10
-118.396535
20
396.583322
0
VERTEX
5
8d4
100
AcDbEntity
8
1
100
AcDbVertex
100
AcDb2dVertex
62
5
10
-118.279347
20
396.583322
0
VERTEX
5
8d5
100
AcDbEntity
8
1
100
AcDbVertex
100
AcDb2dVertex
62
5
10
-118.201222
20
396.661447
0
VERTEX
5
8d6
100
AcDbEntity
8
1
100
AcDbVertex
100
AcDb2dVertex
62
5
10
-118.123097
20
396.856759
0
SEQEND
5
8d7
100
AcDbEntity
8
1
0
CIRCLE
5
8d8
100
AcDbEntity
8
1
100
AcDbCircle
6
CONTINUOUS
62
5
10
-116.275285
20
388.149572
40
0.787500
0
LINE
5
8d9
100
AcDbEntity
8
1
100
AcDbLine
6
CONTINUOUS
62
5
10
-116.832131
20
387.592725
11
-115.718438
21
388.706418
0
LINE
5
8da
100
AcDbEntity
8
1
100
AcDbLine
6
CONTINUOUS
62
5
10
-116.593483
20
388.467770
11
-115.957087
21
387.831374
0
CIRCLE
5
8db
100
AcDbEntity
8
1
100
AcDbCircle
6
CONTINUOUS
62
5
10
-116.275285
20
394.892072
40
0.787500
0
LINE
5
8dc
100
AcDbEntity
8
1
100
AcDbLine
6
CONTINUOUS
62
5
10
-116.832131
20
394.335225
11
-115.718438
21
395.448918
0
LINE
5
8dd
100
AcDbEntity
8
1
100
AcDbLine
6
CONTINUOUS
62
5
10
-116.593483
20
395.210270
11
-115.957087
21
394.573874
0
LINE
5
8de
100
AcDbEntity
8
1
100
AcDbLine
6
CONTINUOUS
62
5
10
-119.177785
20
397.052072
11
-118.787160
21
397.052072
0
POLYLINE
5
8df
100
AcDbEntity
8
1
6
CONTINUOUS
62
5
100
AcDb2dPolyline
66
1
10
0.0
20
0.0
30
0.0
70
0
0
VERTEX
5
8e0
100
AcDbEntity
8
1
100
AcDbVertex
100
AcDb2dVertex
62
5
10
-135.662160
20
397.520822
0
VERTEX
5
8e1
100
AcDbEntity
8
1
100
AcDbVertex
100
AcDb2dVertex
62
5
10
-136.052785
20
397.520822
0
VERTEX
5
8e2
100
AcDbEntity
8
1
100
AcDbVertex
100
AcDb2dVertex
62
5
10
-136.052785
20
396.583322
0
VERTEX
5
8e3
100
AcDbEntity
8
1
100
AcDbVertex
100
AcDb2dVertex
62
5
10
-135.623097
20
396.583322
0
SEQEND
5
8e4
100
AcDbEntity
8
1
0
LINE
5
8e5
100
AcDbEntity
8
1
100
AcDbLine
6
CONTINUOUS
62
5
10
-136.052785
20
397.052072
11
-135.701222
21
397.052072
0
POLYLINE
5
8e6
100
AcDbEntity
8
1
6
CONTINUOUS
62
5
100
AcDb2dPolyline
66
1
10
0.0
20
0.0
30
0.0
70
0
0
VERTEX
5
8e7
100
AcDbEntity
8
1
100
AcDbVertex
100
AcDb2dVertex
62
5
10
-135.427785
20
396.583322
0
VERTEX
5
8e8
100
AcDbEntity
8
1
100
AcDbVertex
100
AcDb2dVertex
62
5
10
-135.427785
20
397.520822
0
VERTEX
5
8e9
100
AcDbEntity
8
1
100
AcDbVertex
100
AcDb2dVertex
62
5
10
-135.037160
20
396.583322
0
VERTEX
5
8ea
100
AcDbEntity
8
1
100
AcDbVertex
100
AcDb2dVertex
62
5
10
-135.037160
20
397.520822
0
SEQEND
5
8eb
100
AcDbEntity
8
1
0
POLYLINE
5
8ec
100
AcDbEntity
8
1
6
CONTINUOUS
62
5
100
AcDb2dPolyline
66
1
10
0.0
20
0.0
30
0.0
70
0
0
VERTEX
5
8ed
100
AcDbEntity
8
1
100
AcDbVertex
100
AcDb2dVertex
62
5
10
-134.412160
20
397.325509
0
VERTEX
5
8ee
100
AcDbEntity
8
1
100
AcDbVertex
100
AcDb2dVertex
62
5
10
-134.451222
20
397.442697
0
VERTEX
5
8ef
100
AcDbEntity
8
1
100
AcDbVertex
100
AcDb2dVertex
62
5
10
-134.529347
20
397.520822
0
VERTEX
5
8f0
100
AcDbEntity
8
1
100
AcDbVertex
100
AcDb2dVertex
62
5
10
-134.646535
20
397.520822
0
VERTEX
5
8f1
100
AcDbEntity
8
1
100
AcDbVertex
100
AcDb2dVertex
62
5
10
-134.763722
20
397.403634
0
VERTEX
5
8f2
100
AcDbEntity
8
1
100
AcDbVertex
100
AcDb2dVertex
62
5
10
-134.802785
20
397.208322
0
VERTEX
5
8f3
100
AcDbEntity
8
1
100
AcDbVertex
100
AcDb2dVertex
62
5
10
-134.802785
20
396.895822
0
VERTEX
5
8f4
100
AcDbEntity
8
1
100
AcDbVertex
100
AcDb2dVertex
62
5
10
-134.763722
20
396.700509
0
VERTEX
5
8f5
100
AcDbEntity
8
1
100
AcDbVertex
100
AcDb2dVertex
62
5
10
-134.646535
20
396.583322
0
VERTEX
5
8f6
100
AcDbEntity
8
1
100
AcDbVertex
100
AcDb2dVertex
62
5
10
-134.529347
20
396.583322
0
VERTEX
5
8f7
100
AcDbEntity
8
1
100
AcDbVertex
100
AcDb2dVertex
62
5
10
-134.451222
20
396.661447
0
VERTEX
5
8f8
100
AcDbEntity
8
1
100
AcDbVertex
100
AcDb2dVertex
62
5
10
-134.373097
20
396.856759
0
SEQEND
5
8f9
100
AcDbEntity
8
1
0
POLYLINE
5
8fa
100
AcDbEntity
8
1
6
CONTINUOUS
62
5
100
AcDb2dPolyline
66
1
10
0.0
20
0.0
30
0.0
70
0
0
VERTEX
5
8fb
100
AcDbEntity
8
1
100
AcDbVertex
100
AcDb2dVertex
62
5
10
-133.162160
20
397.325509
0
VERTEX
5
8fc
100
AcDbEntity
8
1
100
AcDbVertex
100
AcDb2dVertex
62
5
10
-133.201222
20
397.442697
0
VERTEX
5
8fd
100
AcDbEntity
8
1
100
AcDbVertex
100
AcDb2dVertex
62
5
10
-133.279347
20
397.520822
0
VERTEX
5
8fe
100
AcDbEntity
8
1
100
AcDbVertex
100
AcDb2dVertex
62
5
10
-133.396535
20
397.520822
0
VERTEX
5
8ff
100
AcDbEntity
8
1
100
AcDbVertex
100
AcDb2dVertex
62
5
10
-133.513722
20
397.403634
0
VERTEX
5
900
100
AcDbEntity
8
1
100
AcDbVertex
100
AcDb2dVertex
62
5
10
-133.552785
20
397.208322
0
VERTEX
5
901
100
AcDbEntity
8
1
100
AcDbVertex
100
AcDb2dVertex
62
5
10
-133.552785
20
396.895822
0
VERTEX
5
902
100
AcDbEntity
8
1
100
AcDbVertex
100
AcDb2dVertex
62
5
10
-133.513722
20
396.700509
0
VERTEX
5
903
100
AcDbEntity
8
1
100
AcDbVertex
100
AcDb2dVertex
62
5
10
-133.396535
20
396.583322
0
VERTEX
5
904
100
AcDbEntity
8
1
100
AcDbVertex
100
AcDb2dVertex
62
5
10
-133.279347
20
396.583322
0
VERTEX
5
905
100
AcDbEntity
8
1
100
AcDbVertex
100
AcDb2dVertex
62
5
10
-133.201222
20
396.661447
0
VERTEX
5
906
100
AcDbEntity
8
1
100
AcDbVertex
100
AcDb2dVertex
62
5
10
-133.123097
20
396.856759
0
SEQEND
5
907
100
AcDbEntity
8
1
0
LINE
5
908
100
AcDbEntity
8
1
100
AcDbLine
6
CONTINUOUS
62
5
10
-134.177785
20
397.052072
11
-133.787160
21
397.052072
0
ARC
5
909
100
AcDbEntity
8
1
100
AcDbCircle
6
CONTINUOUS
62
5
10
-134.646535
20
391.520822
40
4.000000
100
AcDbArc
50
89.999999
51
-89.999999
0
CIRCLE
5
90a
100
AcDbEntity
8
1
100
AcDbCircle
6
CONTINUOUS
62
5
10
-138.271535
20
387.895822
40
0.787500
0
LINE
5
90b
100
AcDbEntity
8
1
100
AcDbLine
6
CONTINUOUS
62
5
10
-138.828381
20
387.338975
11
-137.714688
21
388.452668
0
LINE
5
90c
100
AcDbEntity
8
1
100
AcDbLine
6
CONTINUOUS
62
5
10
-138.589733
20
388.214020
11
-137.953337
21
387.577624
0
CIRCLE
5
90d
100
AcDbEntity
8
1
100
AcDbCircle
6
CONTINUOUS
62
5
10
-138.271535
20
395.145822
40
0.787500
0
LINE
5
90e
100
AcDbEntity
8
1
100
AcDbLine
6
CONTINUOUS
62
5
10
-138.828381
20
394.588975
11
-137.714688
21
395.702668
0
LINE
5
90f
100
AcDbEntity
8
1
100
AcDbLine
6
CONTINUOUS
62
5
10
-138.589733
20
395.464020
11
-137.953337
21
394.827624
0
CIRCLE
5
910
100
AcDbEntity
8
1
100
AcDbCircle
6
CONTINUOUS
62
5
10
-134.646535
20
391.520822
40
3.250000
0
ARC
5
911
100
AcDbEntity
8
1
100
AcDbCircle
6
CONTINUOUS
62
5
10
-134.646535
20
391.520822
40
4.000000
100
AcDbArc
50
-89.999999
51
89.999999
0
CIRCLE
5
912
100
AcDbEntity
8
1
100
AcDbCircle
6
CONTINUOUS
62
5
10
-131.021535
20
387.895822
40
0.787500
0
LINE
5
913
100
AcDbEntity
8
1
100
AcDbLine
6
CONTINUOUS
62
5
10
-131.578381
20
387.338975
11
-130.464688
21
388.452668
0
LINE
5
914
100
AcDbEntity
8
1
100
AcDbLine
6
CONTINUOUS
62
5
10
-131.339733
20
388.214020
11
-130.703337
21
387.577624
0
CIRCLE
5
915
100
AcDbEntity
8
1
100
AcDbCircle
6
CONTINUOUS
62
5
10
-131.021535
20
395.145822
40
0.787500
0
LINE
5
916
100
AcDbEntity
8
1
100
AcDbLine
6
CONTINUOUS
62
5
10
-131.578381
20
394.588975
11
-130.464688
21
395.702668
0
LINE
5
917
100
AcDbEntity
8
1
100
AcDbLine
6
CONTINUOUS
62
5
10
-131.339733
20
395.464020
11
-130.703337
21
394.827624
0
CIRCLE
5
918
100
AcDbEntity
8
1
100
AcDbCircle
6
CONTINUOUS
62
5
10
-134.646535
20
391.520822
40
3.750000
0
CIRCLE
5
919
100
AcDbEntity
8
1
100
AcDbCircle
6
CONTINUOUS
62
5
10
-119.646535
20
391.520822
40
3.575000
0
CIRCLE
5
91a
100
AcDbEntity
8
1
100
AcDbCircle
6
CONTINUOUS
62
5
10
-119.646535
20
391.520822
40
3.375000
0
CIRCLE
5
91b
100
AcDbEntity
8
1
100
AcDbCircle
6
CONTINUOUS
62
5
10
-119.646535
20
391.520822
40
3.075000
0
CIRCLE
5
91c
100
AcDbEntity
8
1
100
AcDbCircle
6
CONTINUOUS
62
5
10
-123.017785
20
388.149572
40
0.787500
0
LINE
5
91d
100
AcDbEntity
8
1
100
AcDbLine
6
CONTINUOUS
62
5
10
-123.574631
20
387.592725
11
-122.460938
21
388.706418
0
LINE
5
91e
100
AcDbEntity
8
1
100
AcDbLine
6
CONTINUOUS
62
5
10
-123.335983
20
388.467770
11
-122.699587
21
387.831374
0
CIRCLE
5
91f
100
AcDbEntity
8
1
100
AcDbCircle
6
CONTINUOUS
62
5
10
-123.017785
20
394.892072
40
0.787500
0
LINE
5
920
100
AcDbEntity
8
1
100
AcDbLine
6
CONTINUOUS
62
5
10
-123.574631
20
394.335225
11
-122.460938
21
395.448918
0
LINE
5
921
100
AcDbEntity
8
1
100
AcDbLine
6
CONTINUOUS
62
5
10
-123.335983
20
395.210270
11
-122.699587
21
394.573874
0
CIRCLE
5
922
100
AcDbEntity
8
1
100
AcDbCircle
6
DASHED
62
5
10
-109.396535
20
360.270822
40
0.675000
0
CIRCLE
5
923
100
AcDbEntity
8
1
100
AcDbCircle
6
DOT2
62
5
10
-109.396535
20
360.270822
40
0.500000
0
CIRCLE
5
924
100
AcDbEntity
8
1
100
AcDbCircle
6
CONTINUOUS
62
5
10
-109.396535
20
360.270822
40
0.375000
0
LINE
5
925
100
AcDbEntity
8
1
100
AcDbLine
6
CONTINUOUS
62
5
10
-113.146535
20
360.917964
11
-113.146535
21
360.137964
0
LINE
5
926
100
AcDbEntity
8
1
100
AcDbLine
6
CONTINUOUS
62
5
10
-113.326535
20
359.777964
11
-112.966535
21
359.777964
0
LINE
5
927
100
AcDbEntity
8
1
100
AcDbLine
6
CONTINUOUS
62
5
10
-113.746535
20
360.137964
11
-112.546535
21
360.137964
0
LINE
5
928
100
AcDbEntity
8
1
100
AcDbLine
6
CONTINUOUS
62
5
10
-113.536535
20
359.957964
11
-112.756535
21
359.957964
0
CIRCLE
5
929
100
AcDbEntity
8
1
100
AcDbCircle
6
CONTINUOUS
62
5
10
-113.146535
20
360.270822
40
0.719791
0
LINE
5
92a
100
AcDbEntity
8
1
100
AcDbLine
6
CONTINUOUS
62
5
10
-119.275304
20
353.899590
11
-120.017766
21
354.642053
0
LINE
5
92b
100
AcDbEntity
8
1
100
AcDbLine
6
CONTINUOUS
62
5
10
-120.017766
20
353.899590
11
-119.275304
21
354.642053
0
CIRCLE
5
92c
100
AcDbEntity
8
1
100
AcDbCircle
6
CONTINUOUS
62
5
10
-119.646535
20
354.270822
40
1.175000
0
LINE
5
92d
100
AcDbEntity
8
1
100
AcDbLine
6
CONTINUOUS
62
5
10
-147.267766
20
421.934089
11
-146.525304
21
421.191627
0
LINE
5
92e
100
AcDbEntity
8
1
100
AcDbLine
6
CONTINUOUS
62
5
10
-146.525304
20
421.934089
11
-147.267766
21
421.191627
0
CIRCLE
5
92f
100
AcDbEntity
8
1
100
AcDbCircle
6
CONTINUOUS
62
5
10
-146.896535
20
421.562858
40
1.175000
0
ARC
5
930
100
AcDbEntity
8
1
100
AcDbCircle
6
CONTINUOUS
62
5
10
-169.646535
20
400.068441
40
1.577381
100
AcDbArc
50
41.849003
51
138.150995
0
POLYLINE
5
931
100
AcDbEntity
8
1
6
CONTINUOUS
62
5
100
AcDb2dPolyline
66
1
10
0.0
20
0.0
30
0.0
70
1
0
VERTEX
5
932
100
AcDbEntity
8
1
100
AcDbVertex
100
AcDb2dVertex
62
5
10
-168.471535
20
401.020822
0
VERTEX
5
933
100
AcDbEntity
8
1
100
AcDbVertex
100
AcDb2dVertex
62
5
10
-170.821535
20
401.020822
0
VERTEX
5
934
100
AcDbEntity
8
1
100
AcDbVertex
100
AcDb2dVertex
62
5
10
-170.821535
20
401.120822
0
VERTEX
5
935
100
AcDbEntity
8
1
100
AcDbVertex
100
AcDb2dVertex
62
5
10
-168.471535
20
401.120822
0
SEQEND
5
936
100
AcDbEntity
8
1
0
LINE
5
937
100
AcDbEntity
8
0
100
AcDbLine
6
CONTINUOUS
62
5
10
-183.146548
20
446.937853
11
-183.021548
21
446.812853
0
LINE
5
938
100
AcDbEntity
8
0
100
AcDbLine
6
CONTINUOUS
62
5
10
-183.146547
20
447.912829
11
-183.146547
21
446.937853
0
LINE
5
939
100
AcDbEntity
8
0
100
AcDbLine
6
CONTINUOUS
62
5
10
-183.021535
20
450.939416
11
-183.021535
21
446.686303
0
ARC
5
93a
100
AcDbEntity
8
0
100
AcDbCircle
6
CONTINUOUS
62
5
10
-182.971535
20
446.686303
40
0.050000
100
AcDbArc
50
-179.999988
51
-91.808989
0
LINE
5
93b
100
AcDbEntity
8
0
100
AcDbLine
6
CONTINUOUS
62
5
10
-183.146548
20
450.687853
11
-183.021548
21
450.812853
0
ARC
5
93c
100
AcDbEntity
8
0
100
AcDbCircle
6
CONTINUOUS
62
5
10
-182.971535
20
450.939416
40
0.050000
100
AcDbArc
50
91.808902
51
-179.999988
0
LINE
5
93d
100
AcDbEntity
8
1
100
AcDbLine
6
CONTINUOUS
62
5
10
-184.396537
20
457.287582
11
-184.021537
21
457.287582
0
LINE
5
93e
100
AcDbEntity
8
1
100
AcDbLine
6
CONTINUOUS
62
5
10
-184.396537
20
457.406509
11
-184.021537
21
457.406509
0
LINE
5
93f
100
AcDbEntity
8
1
100
AcDbLine
6
CONTINUOUS
62
5
10
-184.396537
20
456.303607
11
-184.021537
21
456.303607
0
LINE
5
940
100
AcDbEntity
8
1
100
AcDbLine
6
CONTINUOUS
62
5
10
-184.396537
20
456.283157
11
-184.021537
21
456.283157
0
LINE
5
941
100
AcDbEntity
8
1
100
AcDbLine
6
CONTINUOUS
62
5
10
-184.396537
20
456.147109
11
-184.021537
21
456.147109
0
LINE
5
942
100
AcDbEntity
8
1
100
AcDbLine
6
CONTINUOUS
62
5
10
-184.396537
20
456.161208
11
-184.021537
21
456.161208
0
LINE
5
943
100
AcDbEntity
8
1
100
AcDbLine
6
CONTINUOUS
62
5
10
-184.396537
20
455.898559
11
-184.021537
21
455.898559
0
LINE
5
944
100
AcDbEntity
8
1
100
AcDbLine
6
CONTINUOUS
62
5
10
-184.396537
20
455.667834
11
-184.021537
21
455.667834
0
LINE
5
945
100
AcDbEntity
8
1
100
AcDbLine
6
CONTINUOUS
62
5
10
-184.396537
20
455.779033
11
-184.021537
21
455.779033
0
LINE
5
946
100
AcDbEntity
8
1
100
AcDbLine
6
CONTINUOUS
62
5
10
-184.396537
20
455.565257
11
-184.021537
21
455.565257
0
LINE
5
947
100
AcDbEntity
8
1
100
AcDbLine
6
CONTINUOUS
62
5
10
-184.396537
20
456.018359
11
-184.021537
21
456.018359
0
LINE
5
948
100
AcDbEntity
8
1
100
AcDbLine
6
CONTINUOUS
62
5
10
-184.396537
20
456.026057
11
-184.021537
21
456.026057
0
LINE
5
949
100
AcDbEntity
8
1
100
AcDbLine
6
CONTINUOUS
62
5
10
-184.396537
20
455.144809
11
-184.021537
21
455.144809
0
LINE
5
94a
100
AcDbEntity
8
1
100
AcDbLine
6
CONTINUOUS
62
5
10
-184.396537
20
455.190635
11
-184.021537
21
455.190635
0
LINE
5
94b
100
AcDbEntity
8
1
100
AcDbLine
6
CONTINUOUS
62
5
10
-184.396537
20
455.246383
11
-184.021537
21
455.246383
0
LINE
5
94c
100
AcDbEntity
8
1
100
AcDbLine
6
CONTINUOUS
62
5
10
-184.396537
20
455.311935
11
-184.021537
21
455.311935
0
LINE
5
94d
100
AcDbEntity
8
1
100
AcDbLine
6
CONTINUOUS
62
5
10
-184.396537
20
455.387057
11
-184.021537
21
455.387057
0
LINE
5
94e
100
AcDbEntity
8
1
100
AcDbLine
6
CONTINUOUS
62
5
10
-184.396537
20
455.471583
11
-184.021537
21
455.471583
0
LINE
5
94f
100
AcDbEntity
8
1
100
AcDbLine
6
CONTINUOUS
62
5
10
-184.396537
20
455.062858
11
-184.021537
21
455.062858
0
LINE
5
950
100
AcDbEntity
8
1
100
AcDbLine
6
CONTINUOUS
62
5
10
-184.396537
20
455.068008
11
-184.021537
21
455.068008
0
LINE
5
951
100
AcDbEntity
8
1
100
AcDbLine
6
CONTINUOUS
62
5
10
-184.396537
20
455.083385
11
-184.021537
21
455.083385
0
LINE
5
952
100
AcDbEntity
8
1
100
AcDbLine
6
CONTINUOUS
62
5
10
-184.396537
20
455.109035
11
-184.021537
21
455.109035
0
ARC
5
953
100
AcDbEntity
8
1
100
AcDbCircle
6
CONTINUOUS
62
5
10
-184.196123
20
456.160384
40
1.025000
100
AcDbArc
50
-80.193120
51
-53.365689
0
LINE
5
954
100
AcDbEntity
8
1
100
AcDbLine
6
CONTINUOUS
62
5
10
-184.396537
20
456.770457
11
-184.021537
21
456.770457
0
LINE
5
955
100
AcDbEntity
8
1
100
AcDbLine
6
CONTINUOUS
62
5
10
-184.396537
20
456.892684
11
-184.021537
21
456.892684
0
LINE
5
956
100
AcDbEntity
8
1
100
AcDbLine
6
CONTINUOUS
62
5
10
-184.396537
20
456.937858
11
-184.021537
21
456.937858
0
LINE
5
957
100
AcDbEntity
8
1
100
AcDbLine
6
CONTINUOUS
62
5
10
-184.396537
20
457.110381
11
-184.021537
21
457.110381
0
LINE
5
958
100
AcDbEntity
8
1
100
AcDbLine
6
CONTINUOUS
62
5
10
-184.396537
20
457.059306
11
-184.021537
21
457.059306
0
LINE
5
959
100
AcDbEntity
8
1
100
AcDbLine
6
CONTINUOUS
62
5
10
-184.396537
20
457.230731
11
-184.021537
21
457.230731
0
LINE
5
95a
100
AcDbEntity
8
1
100
AcDbLine
6
CONTINUOUS
62
5
10
-184.396537
20
456.731307
11
-184.021537
21
456.731307
0
LINE
5
95b
100
AcDbEntity
8
1
100
AcDbLine
6
CONTINUOUS
62
5
10
-184.396537
20
456.452907
11
-184.021537
21
456.452907
0
LINE
5
95c
100
AcDbEntity
8
1
100
AcDbLine
6
CONTINUOUS
62
5
10
-184.396537
20
456.575660
11
-184.021537
21
456.575660
0
LINE
5
95d
100
AcDbEntity
8
1
100
AcDbLine
6
CONTINUOUS
62
5
10
-184.396537
20
456.608657
11
-184.021537
21
456.608657
0
LINE
5
95e
100
AcDbEntity
8
1
100
AcDbLine
6
CONTINUOUS
62
5
10
-184.396537
20
456.426131
11
-184.021537
21
456.426131
0
LINE
5
95f
100
AcDbEntity
8
1
100
AcDbLine
6
CONTINUOUS
62
5
10
-184.396537
20
457.842284
11
-184.021537
21
457.842284
0
LINE
5
960
100
AcDbEntity
8
1
100
AcDbLine
6
CONTINUOUS
62
5
10
-184.396537
20
457.954932
11
-184.021537
21
457.954932
0
LINE
5
961
100
AcDbEntity
8
1
100
AcDbLine
6
CONTINUOUS
62
5
10
-184.396537
20
458.033183
11
-184.021537
21
458.033183
0
LINE
5
962
100
AcDbEntity
8
1
100
AcDbLine
6
CONTINUOUS
62
5
10
-184.396537
20
457.769107
11
-184.021537
21
457.769107
0
LINE
5
963
100
AcDbEntity
8
1
100
AcDbLine
6
CONTINUOUS
62
5
10
-184.396537
20
457.586108
11
-184.021537
21
457.586108
0
LINE
5
964
100
AcDbEntity
8
1
100
AcDbLine
6
CONTINUOUS
62
5
10
-184.396537
20
457.654033
11
-184.021537
21
457.654033
0
LINE
5
965
100
AcDbEntity
8
1
100
AcDbLine
6
CONTINUOUS
62
5
10
-184.396537
20
457.468982
11
-184.021537
21
457.468982
0
LINE
5
966
100
AcDbEntity
8
1
100
AcDbLine
6
CONTINUOUS
62
5
10
-184.396537
20
458.143157
11
-184.021537
21
458.143157
0
LINE
5
967
100
AcDbEntity
8
1
100
AcDbLine
6
CONTINUOUS
62
5
10
-184.396537
20
458.226234
11
-184.021537
21
458.226234
0
LINE
5
968
100
AcDbEntity
8
1
100
AcDbLine
6
CONTINUOUS
62
5
10
-184.396537
20
458.333182
11
-184.021537
21
458.333182
0
LINE
5
969
100
AcDbEntity
8
1
100
AcDbLine
6
CONTINUOUS
62
5
10
-184.396537
20
458.420882
11
-184.021537
21
458.420882
0
ARC
5
96a
100
AcDbEntity
8
1
100
AcDbCircle
6
CONTINUOUS
62
5
10
-184.221947
20
456.160384
40
1.025000
100
AcDbArc
50
-159.807301
51
-99.806876
0
LINE
5
96b
100
AcDbEntity
8
0
100
AcDbLine
6
CONTINUOUS
62
5
10
-183.146547
20
457.912829
11
-183.146547
21
456.937853
0
ARC
5
96c
100
AcDbEntity
8
0
100
AcDbCircle
6
CONTINUOUS
62
5
10
-182.971535
20
456.686304
40
0.050000
100
AcDbArc
50
-179.999988
51
-91.808989
0
LINE
5
96d
100
AcDbEntity
8
0
100
AcDbLine
6
CONTINUOUS
62
5
10
-183.146548
20
456.937853
11
-183.021548
21
456.812853
0
LINE
5
96e
100
AcDbEntity
8
0
100
AcDbLine
6
CONTINUOUS
62
5
10
-183.146547
20
450.687853
11
-183.146547
21
447.912829
0
LINE
5
96f
100
AcDbEntity
8
1
100
AcDbLine
6
CONTINUOUS
62
5
10
-184.396537
20
458.909057
11
-184.021537
21
458.909057
0
LINE
5
970
100
AcDbEntity
8
1
100
AcDbLine
6
CONTINUOUS
62
5
10
-184.396537
20
458.812858
11
-184.021537
21
458.812858
0
LINE
5
971
100
AcDbEntity
8
1
100
AcDbLine
6
CONTINUOUS
62
5
10
-184.396537
20
458.716659
11
-184.021537
21
458.716659
0
LINE
5
972
100
AcDbEntity
8
1
100
AcDbLine
6
CONTINUOUS
62
5
10
-184.396537
20
458.616584
11
-184.021537
21
458.616584
0
LINE
5
973
100
AcDbEntity
8
1
100
AcDbLine
6
CONTINUOUS
62
5
10
-184.396537
20
458.524531
11
-184.021537
21
458.524531
0
LINE
5
974
100
AcDbEntity
8
1
100
AcDbLine
6
CONTINUOUS
62
5
10
-183.584500
20
455.337859
11
-182.265870
21
455.337859
0
LINE
5
975
100
AcDbEntity
8
1
100
AcDbLine
6
CONTINUOUS
62
5
10
-182.265869
20
455.337858
11
-182.128231
21
455.576259
0
ARC
5
976
100
AcDbEntity
8
1
100
AcDbCircle
6
CONTINUOUS
62
5
10
-182.171535
20
455.601234
40
0.050000
100
AcDbArc
50
-29.999789
51
0.000000
0
LINE
5
977
100
AcDbEntity
8
1
100
AcDbLine
6
CONTINUOUS
62
5
10
-182.121535
20
455.601234
11
-182.121535
21
456.609436
0
LINE
5
978
100
AcDbEntity
8
1
100
AcDbLine
6
CONTINUOUS
62
5
10
-182.265872
20
456.613994
11
-182.265872
21
455.337859
0
LINE
5
979
100
AcDbEntity
8
0
100
AcDbLine
6
CONTINUOUS
62
5
10
-182.973110
20
446.636329
11
-181.896535
21
446.602330
0
POLYLINE
5
97a
100
AcDbEntity
8
0
6
CONTINUOUS
62
5
100
AcDb2dPolyline
66
1
10
0.0
20
0.0
30
0.0
70
1
0
VERTEX
5
97b
100
AcDbEntity
8
0
100
AcDbVertex
100
AcDb2dVertex
62
5
10
-181.896535
20
451.023385
0
VERTEX
5
97c
100
AcDbEntity
8
0
100
AcDbVertex
100
AcDb2dVertex
62
5
10
-182.973110
20
450.989391
0
SEQEND
5
97d
100
AcDbEntity
8
0
0
POLYLINE
5
97e
100
AcDbEntity
8
1
6
CONTINUOUS
62
5
100
AcDb2dPolyline
66
1
10
0.0
20
0.0
30
0.0
70
1
0
VERTEX
5
97f
100
AcDbEntity
8
1
100
AcDbVertex
100
AcDb2dVertex
62
5
10
-181.896535
20
455.737857
0
VERTEX
5
980
100
AcDbEntity
8
1
100
AcDbVertex
100
AcDb2dVertex
62
5
10
-182.121535
20
455.737857
0
SEQEND
5
981
100
AcDbEntity
8
1
0
LINE
5
982
100
AcDbEntity
8
0
100
AcDbLine
6
CONTINUOUS
62
5
10
-182.973110
20
456.636329
11
-181.896535
21
456.602330
0
LINE
5
983
100
AcDbEntity
8
1
100
AcDbLine
6
CONTINUOUS
62
5
10
-179.517766
20
443.934089
11
-178.775304
21
443.191627
0
LINE
5
984
100
AcDbEntity
8
1
100
AcDbLine
6
CONTINUOUS
62
5
10
-178.775304
20
443.934089
11
-179.517766
21
443.191627
0
CIRCLE
5
985
100
AcDbEntity
8
1
100
AcDbCircle
6
CONTINUOUS
62
5
10
-179.146535
20
443.562858
40
1.175000
0
ARC
5
986
100
AcDbEntity
8
1
100
AcDbCircle
6
CONTINUOUS
62
5
10
-172.690363
20
417.062858
40
0.250000
100
AcDbArc
50
-89.999999
51
-1.432096
0
POLYLINE
5
987
100
AcDbEntity
8
1
6
CONTINUOUS
62
5
100
AcDb2dPolyline
66
1
10
0.0
20
0.0
30
0.0
70
0
0
VERTEX
5
988
100
AcDbEntity
8
1
100
AcDbVertex
100
AcDb2dVertex
62
5
10
-172.440441
20
417.056610
0
VERTEX
5
989
100
AcDbEntity
8
1
100
AcDbVertex
100
AcDb2dVertex
62
5
10
-172.396535
20
418.812858
0
VERTEX
5
98a
100
AcDbEntity
8
1
100
AcDbVertex
100
AcDb2dVertex
62
5
10
-177.896535
20
418.812858
0
VERTEX
5
98b
100
AcDbEntity
8
1
100
AcDbVertex
100
AcDb2dVertex
62
5
10
-177.852629
20
417.056610
0
SEQEND
5
98c
100
AcDbEntity
8
1
0
ARC
5
98d
100
AcDbEntity
8
1
100
AcDbCircle
6
CONTINUOUS
62
5
10
-177.602707
20
417.062858
40
0.250000
100
AcDbArc
50
-178.567902
51
-89.999999
0
LINE
5
98e
100
AcDbEntity
8
1
100
AcDbLine
6
CONTINUOUS
62
5
10
-177.602707
20
416.812858
11
-172.690363
21
416.812858
0
CIRCLE
5
98f
100
AcDbEntity
8
1
100
AcDbCircle
6
CONTINUOUS
62
5
10
-169.646535
20
354.270822
40
1.175000
0
LINE
5
990
100
AcDbEntity
8
1
100
AcDbLine
6
CONTINUOUS
62
5
10
-170.017766
20
353.899590
11
-169.275304
21
354.642053
0
LINE
5
991
100
AcDbEntity
8
1
100
AcDbLine
6
CONTINUOUS
62
5
10
-169.275304
20
353.899590
11
-170.017766
21
354.642053
0
CIRCLE
5
992
100
AcDbEntity
8
1
100
AcDbCircle
6
CONTINUOUS
62
5
10
-178.146535
20
397.770822
40
0.787500
0
LINE
5
993
100
AcDbEntity
8
1
100
AcDbLine
6
CONTINUOUS
62
5
10
-178.703381
20
397.213975
11
-177.589688
21
398.327668
0
LINE
5
994
100
AcDbEntity
8
1
100
AcDbLine
6
CONTINUOUS
62
5
10
-178.464733
20
398.089020
11
-177.828337
21
397.452624
0
ARC
5
995
100
AcDbEntity
8
1
100
AcDbCircle
6
CONTINUOUS
62
5
10
-179.146535
20
388.145822
40
0.375000
100
AcDbArc
50
-179.999998
51
-0.000000
0
LINE
5
996
100
AcDbEntity
8
1
100
AcDbLine
6
CONTINUOUS
62
5
10
-178.771535
20
388.145822
11
-178.771535
21
394.895822
0
ARC
5
997
100
AcDbEntity
8
1
100
AcDbCircle
6
CONTINUOUS
62
5
10
-179.146535
20
394.895822
40
0.375000
100
AcDbArc
50
-0.000000
51
-179.999998
0
LINE
5
998
100
AcDbEntity
8
1
100
AcDbLine
6
CONTINUOUS
62
5
10
-179.521535
20
394.895822
11
-179.521535
21
388.145822
0
ARC
5
999
100
AcDbEntity
8
1
100
AcDbCircle
6
CONTINUOUS
62
5
10
-177.646535
20
388.145822
40
0.375000
100
AcDbArc
50
-179.999998
51
-0.000000
0
LINE
5
99a
100
AcDbEntity
8
1
100
AcDbLine
6
CONTINUOUS
62
5
10
-177.271535
20
388.145822
11
-177.271535
21
394.895822
0
ARC
5
99b
100
AcDbEntity
8
1
100
AcDbCircle
6
CONTINUOUS
62
5
10
-177.646535
20
394.895822
40
0.375000
100
AcDbArc
50
-0.000000
51
-179.999998
0
LINE
5
99c
100
AcDbEntity
8
1
100
AcDbLine
6
CONTINUOUS
62
5
10
-178.021535
20
394.895822
11
-178.021535
21
388.145822
0
ARC
5
99d
100
AcDbEntity
8
1
100
AcDbCircle
6
CONTINUOUS
62
5
10
-185.146535
20
383.770822
40
0.375000
100
AcDbArc
50
-179.999998
51
-0.000000
0
LINE
5
99e
100
AcDbEntity
8
1
100
AcDbLine
6
CONTINUOUS
62
5
10
-184.771535
20
383.770822
11
-184.771535
21
390.520822
0
ARC
5
99f
100
AcDbEntity
8
1
100
AcDbCircle
6
CONTINUOUS
62
5
10
-185.146535
20
390.520822
40
0.375000
100
AcDbArc
50
-0.000000
51
-179.999998
0
LINE
5
9a0
100
AcDbEntity
8
1
100
AcDbLine
6
CONTINUOUS
62
5
10
-185.521535
20
390.520822
11
-185.521535
21
383.770822
0
ARC
5
9a1
100
AcDbEntity
8
1
100
AcDbCircle
6
CONTINUOUS
62
5
10
-188.146535
20
383.770822
40
0.375000
100
AcDbArc
50
-179.999998
51
-0.000000
0
LINE
5
9a2
100
AcDbEntity
8
1
100
AcDbLine
6
CONTINUOUS
62
5
10
-187.771535
20
383.770822
11
-187.771535
21
390.520822
0
ARC
5
9a3
100
AcDbEntity
8
1
100
AcDbCircle
6
CONTINUOUS
62
5
10
-188.146535
20
390.520822
40
0.375000
100
AcDbArc
50
-0.000000
51
-179.999998
0
LINE
5
9a4
100
AcDbEntity
8
1
100
AcDbLine
6
CONTINUOUS
62
5
10
-188.521535
20
390.520822
11
-188.521535
21
383.770822
0
ARC
5
9a5
100
AcDbEntity
8
1
100
AcDbCircle
6
CONTINUOUS
62
5
10
-186.646535
20
383.770822
40
0.375000
100
AcDbArc
50
-179.999998
51
-0.000000
0
LINE
5
9a6
100
AcDbEntity
8
1
100
AcDbLine
6
CONTINUOUS
62
5
10
-186.271535
20
383.770822
11
-186.271535
21
390.520822
0
ARC
5
9a7
100
AcDbEntity
8
1
100
AcDbCircle
6
CONTINUOUS
62
5
10
-186.646535
20
390.520822
40
0.375000
100
AcDbArc
50
-0.000000
51
-179.999998
0
LINE
5
9a8
100
AcDbEntity
8
1
100
AcDbLine
6
CONTINUOUS
62
5
10
-187.021535
20
390.520822
11
-187.021535
21
383.770822
0
ARC
5
9a9
100
AcDbEntity
8
1
100
AcDbCircle
6
CONTINUOUS
62
5
10
-182.146535
20
383.770822
40
0.375000
100
AcDbArc
50
-179.999998
51
-0.000000
0
LINE
5
9aa
100
AcDbEntity
8
1
100
AcDbLine
6
CONTINUOUS
62
5
10
-181.771535
20
383.770822
11
-181.771535
21
390.520822
0
ARC
5
9ab
100
AcDbEntity
8
1
100
AcDbCircle
6
CONTINUOUS
62
5
10
-182.146535
20
390.520822
40
0.375000
100
AcDbArc
50
-0.000000
51
-179.999998
0
LINE
5
9ac
100
AcDbEntity
8
1
100
AcDbLine
6
CONTINUOUS
62
5
10
-182.521535
20
390.520822
11
-182.521535
21
383.770822
0
ARC
5
9ad
100
AcDbEntity
8
1
100
AcDbCircle
6
CONTINUOUS
62
5
10
-183.646535
20
383.770822
40
0.375000
100
AcDbArc
50
-179.999998
51
-0.000000
0
LINE
5
9ae
100
AcDbEntity
8
1
100
AcDbLine
6
CONTINUOUS
62
5
10
-183.271535
20
383.770822
11
-183.271535
21
390.520822
0
ARC
5
9af
100
AcDbEntity
8
1
100
AcDbCircle
6
CONTINUOUS
62
5
10
-183.646535
20
390.520822
40
0.375000
100
AcDbArc
50
-0.000000
51
-179.999998
0
LINE
5
9b0
100
AcDbEntity
8
1
100
AcDbLine
6
CONTINUOUS
62
5
10
-184.021535
20
390.520822
11
-184.021535
21
383.770822
0
ARC
5
9b1
100
AcDbEntity
8
1
100
AcDbCircle
6
CONTINUOUS
62
5
10
-180.646535
20
383.770822
40
0.375000
100
AcDbArc
50
-179.999998
51
-0.000000
0
LINE
5
9b2
100
AcDbEntity
8
1
100
AcDbLine
6
CONTINUOUS
62
5
10
-180.271535
20
383.770822
11
-180.271535
21
390.520822
0
ARC
5
9b3
100
AcDbEntity
8
1
100
AcDbCircle
6
CONTINUOUS
62
5
10
-180.646535
20
390.520822
40
0.375000
100
AcDbArc
50
-0.000000
51
-179.999998
0
LINE
5
9b4
100
AcDbEntity
8
1
100
AcDbLine
6
CONTINUOUS
62
5
10
-181.021535
20
390.520822
11
-181.021535
21
383.770822
0
ARC
5
9b5
100
AcDbEntity
8
1
100
AcDbCircle
6
CONTINUOUS
62
5
10
-191.146535
20
388.145822
40
0.375000
100
AcDbArc
50
-179.999998
51
-0.000000
0
LINE
5
9b6
100
AcDbEntity
8
1
100
AcDbLine
6
CONTINUOUS
62
5
10
-190.771535
20
388.145822
11
-190.771535
21
394.895822
0
ARC
5
9b7
100
AcDbEntity
8
1
100
AcDbCircle
6
CONTINUOUS
62
5
10
-191.146535
20
394.895822
40
0.375000
100
AcDbArc
50
-0.000000
51
-179.999998
0
LINE
5
9b8
100
AcDbEntity
8
1
100
AcDbLine
6
CONTINUOUS
62
5
10
-191.521535
20
394.895822
11
-191.521535
21
388.145822
0
ARC
5
9b9
100
AcDbEntity
8
1
100
AcDbCircle
6
CONTINUOUS
62
5
10
-193.444154
20
376.270822
40
1.577381
100
AcDbArc
50
131.849002
51
-131.849002
0
POLYLINE
5
9ba
100
AcDbEntity
8
1
6
CONTINUOUS
62
5
100
AcDb2dPolyline
66
1
10
0.0
20
0.0
30
0.0
70
1
0
VERTEX
5
9bb
100
AcDbEntity
8
1
100
AcDbVertex
100
AcDb2dVertex
62
5
10
-194.396535
20
375.095822
0
VERTEX
5
9bc
100
AcDbEntity
8
1
100
AcDbVertex
100
AcDb2dVertex
62
5
10
-194.396535
20
377.445822
0
VERTEX
5
9bd
100
AcDbEntity
8
1
100
AcDbVertex
100
AcDb2dVertex
62
5
10
-194.496535
20
377.445822
0
VERTEX
5
9be
100
AcDbEntity
8
1
100
AcDbVertex
100
AcDb2dVertex
62
5
10
-194.496535
20
375.095822
0
SEQEND
5
9bf
100
AcDbEntity
8
1
0
ARC
5
9c0
100
AcDbEntity
8
1
100
AcDbCircle
6
CONTINUOUS
62
5
10
-189.646535
20
388.145822
40
0.375000
100
AcDbArc
50
-179.999998
51
-0.000000
0
LINE
5
9c1
100
AcDbEntity
8
1
100
AcDbLine
6
CONTINUOUS
62
5
10
-189.271535
20
388.145822
11
-189.271535
21
394.895822
0
ARC
5
9c2
100
AcDbEntity
8
1
100
AcDbCircle
6
CONTINUOUS
62
5
10
-189.646535
20
394.895822
40
0.375000
100
AcDbArc
50
-0.000000
51
-179.999998
0
LINE
5
9c3
100
AcDbEntity
8
1
100
AcDbLine
6
CONTINUOUS
62
5
10
-190.021535
20
394.895822
11
-190.021535
21
388.145822
0
CIRCLE
5
9c4
100
AcDbEntity
8
1
100
AcDbCircle
6
CONTINUOUS
62
5
10
-190.646535
20
385.270822
40
0.787500
0
LINE
5
9c5
100
AcDbEntity
8
1
100
AcDbLine
6
CONTINUOUS
62
5
10
-191.203381
20
384.713975
11
-190.089688
21
385.827668
0
LINE
5
9c6
100
AcDbEntity
8
1
100
AcDbLine
6
CONTINUOUS
62
5
10
-190.964733
20
385.589020
11
-190.328337
21
384.952624
0
ARC
5
9c7
100
AcDbEntity
8
1
100
AcDbCircle
6
CONTINUOUS
62
5
10
-189.352707
20
349.770822
40
0.250000
100
AcDbArc
50
-178.567902
51
-89.999999
0
POLYLINE
5
9c8
100
AcDbEntity
8
1
6
CONTINUOUS
62
5
100
AcDb2dPolyline
66
1
10
0.0
20
0.0
30
0.0
70
0
0
VERTEX
5
9c9
100
AcDbEntity
8
1
100
AcDbVertex
100
AcDb2dVertex
62
5
10
-189.602629
20
349.764574
0
VERTEX
5
9ca
100
AcDbEntity
8
1
100
AcDbVertex
100
AcDb2dVertex
62
5
10
-189.646535
20
351.520822
0
VERTEX
5
9cb
100
AcDbEntity
8
1
100
AcDbVertex
100
AcDb2dVertex
62
5
10
-184.146535
20
351.520822
0
VERTEX
5
9cc
100
AcDbEntity
8
1
100
AcDbVertex
100
AcDb2dVertex
62
5
10
-184.190441
20
349.764574
0
SEQEND
5
9cd
100
AcDbEntity
8
1
0
ARC
5
9ce
100
AcDbEntity
8
1
100
AcDbCircle
6
CONTINUOUS
62
5
10
-184.440363
20
349.770822
40
0.250000
100
AcDbArc
50
-89.999999
51
-1.432096
0
LINE
5
9cf
100
AcDbEntity
8
1
100
AcDbLine
6
CONTINUOUS
62
5
10
-184.440363
20
349.520822
11
-189.352707
21
349.520822
0
ARC
5
9d0
100
AcDbEntity
8
1
100
AcDbCircle
6
CONTINUOUS
62
5
10
-193.444154
20
354.270822
40
1.577381
100
AcDbArc
50
131.849002
51
-131.849002
0
POLYLINE
5
9d1
100
AcDbEntity
8
1
6
CONTINUOUS
62
5
100
AcDb2dPolyline
66
1
10
0.0
20
0.0
30
0.0
70
1
0
VERTEX
5
9d2
100
AcDbEntity
8
1
100
AcDbVertex
100
AcDb2dVertex
62
5
10
-194.396535
20
353.095822
0
VERTEX
5
9d3
100
AcDbEntity
8
1
100
AcDbVertex
100
AcDb2dVertex
62
5
10
-194.396535
20
355.445822
0
VERTEX
5
9d4
100
AcDbEntity
8
1
100
AcDbVertex
100
AcDb2dVertex
62
5
10
-194.496535
20
355.445822
0
VERTEX
5
9d5
100
AcDbEntity
8
1
100
AcDbVertex
100
AcDb2dVertex
62
5
10
-194.496535
20
353.095822
0
SEQEND
5
9d6
100
AcDbEntity
8
1
0
ARC
5
9d7
100
AcDbEntity
8
1
100
AcDbCircle
6
CONTINUOUS
62
5
10
-185.146535
20
392.520822
40
0.375000
100
AcDbArc
50
-179.999998
51
-0.000000
0
LINE
5
9d8
100
AcDbEntity
8
1
100
AcDbLine
6
CONTINUOUS
62
5
10
-184.771535
20
392.520822
11
-184.771535
21
399.270822
0
ARC
5
9d9
100
AcDbEntity
8
1
100
AcDbCircle
6
CONTINUOUS
62
5
10
-185.146535
20
399.270822
40
0.375000
100
AcDbArc
50
-0.000000
51
-179.999998
0
LINE
5
9da
100
AcDbEntity
8
1
100
AcDbLine
6
CONTINUOUS
62
5
10
-185.521535
20
399.270822
11
-185.521535
21
392.520822
0
ARC
5
9db
100
AcDbEntity
8
1
100
AcDbCircle
6
CONTINUOUS
62
5
10
-188.146535
20
392.520822
40
0.375000
100
AcDbArc
50
-179.999998
51
-0.000000
0
LINE
5
9dc
100
AcDbEntity
8
1
100
AcDbLine
6
CONTINUOUS
62
5
10
-187.771535
20
392.520822
11
-187.771535
21
399.270822
0
ARC
5
9dd
100
AcDbEntity
8
1
100
AcDbCircle
6
CONTINUOUS
62
5
10
-188.146535
20
399.270822
40
0.375000
100
AcDbArc
50
-0.000000
51
-179.999998
0
LINE
5
9de
100
AcDbEntity
8
1
100
AcDbLine
6
CONTINUOUS
62
5
10
-188.521535
20
399.270822
11
-188.521535
21
392.520822
0
ARC
5
9df
100
AcDbEntity
8
1
100
AcDbCircle
6
CONTINUOUS
62
5
10
-186.646535
20
392.520822
40
0.375000
100
AcDbArc
50
-179.999998
51
-0.000000
0
LINE
5
9e0
100
AcDbEntity
8
1
100
AcDbLine
6
CONTINUOUS
62
5
10
-186.271535
20
392.520822
11
-186.271535
21
399.270822
0
ARC
5
9e1
100
AcDbEntity
8
1
100
AcDbCircle
6
CONTINUOUS
62
5
10
-186.646535
20
399.270822
40
0.375000
100
AcDbArc
50
-0.000000
51
-179.999998
0
LINE
5
9e2
100
AcDbEntity
8
1
100
AcDbLine
6
CONTINUOUS
62
5
10
-187.021535
20
399.270822
11
-187.021535
21
392.520822
0
ARC
5
9e3
100
AcDbEntity
8
1
100
AcDbCircle
6
CONTINUOUS
62
5
10
-182.146535
20
392.520822
40
0.375000
100
AcDbArc
50
-179.999998
51
-0.000000
0
LINE
5
9e4
100
AcDbEntity
8
1
100
AcDbLine
6
CONTINUOUS
62
5
10
-181.771535
20
392.520822
11
-181.771535
21
399.270822
0
ARC
5
9e5
100
AcDbEntity
8
1
100
AcDbCircle
6
CONTINUOUS
62
5
10
-182.146535
20
399.270822
40
0.375000
100
AcDbArc
50
-0.000000
51
-179.999998
0
LINE
5
9e6
100
AcDbEntity
8
1
100
AcDbLine
6
CONTINUOUS
62
5
10
-182.521535
20
399.270822
11
-182.521535
21
392.520822
0
ARC
5
9e7
100
AcDbEntity
8
1
100
AcDbCircle
6
CONTINUOUS
62
5
10
-183.646535
20
392.520822
40
0.375000
100
AcDbArc
50
-179.999998
51
-0.000000
0
LINE
5
9e8
100
AcDbEntity
8
1
100
AcDbLine
6
CONTINUOUS
62
5
10
-183.271535
20
392.520822
11
-183.271535
21
399.270822
0
ARC
5
9e9
100
AcDbEntity
8
1
100
AcDbCircle
6
CONTINUOUS
62
5
10
-183.646535
20
399.270822
40
0.375000
100
AcDbArc
50
-0.000000
51
-179.999998
0
LINE
5
9ea
100
AcDbEntity
8
1
100
AcDbLine
6
CONTINUOUS
62
5
10
-184.021535
20
399.270822
11
-184.021535
21
392.520822
0
ARC
5
9eb
100
AcDbEntity
8
1
100
AcDbCircle
6
CONTINUOUS
62
5
10
-180.646535
20
392.520822
40
0.375000
100
AcDbArc
50
-179.999998
51
-0.000000
0
LINE
5
9ec
100
AcDbEntity
8
1
100
AcDbLine
6
CONTINUOUS
62
5
10
-180.271535
20
392.520822
11
-180.271535
21
399.270822
0
ARC
5
9ed
100
AcDbEntity
8
1
100
AcDbCircle
6
CONTINUOUS
62
5
10
-180.646535
20
399.270822
40
0.375000
100
AcDbArc
50
-0.000000
51
-179.999998
0
LINE
5
9ee
100
AcDbEntity
8
1
100
AcDbLine
6
CONTINUOUS
62
5
10
-181.021535
20
399.270822
11
-181.021535
21
392.520822
0
ARC
5
9ef
100
AcDbEntity
8
1
100
AcDbCircle
6
CONTINUOUS
62
5
10
-193.971535
20
400.595822
40
0.125000
100
AcDbArc
50
89.999999
51
179.999998
0
POLYLINE
5
9f0
100
AcDbEntity
8
1
6
CONTINUOUS
62
5
100
AcDb2dPolyline
66
1
10
0.0
20
0.0
30
0.0
70
0
0
VERTEX
5
9f1
100
AcDbEntity
8
1
100
AcDbVertex
100
AcDb2dVertex
62
5
10
-194.096535
20
400.595822
0
VERTEX
5
9f2
100
AcDbEntity
8
1
100
AcDbVertex
100
AcDb2dVertex
62
5
10
-194.096535
20
351.520822
0
VERTEX
5
9f3
100
AcDbEntity
8
1
100
AcDbVertex
100
AcDb2dVertex
62
5
10
-194.396535
20
351.520822
0
VERTEX
5
9f4
100
AcDbEntity
8
1
100
AcDbVertex
100
AcDb2dVertex
62
5
10
-194.396535
20
400.595822
0
SEQEND
5
9f5
100
AcDbEntity
8
1
0
ARC
5
9f6
100
AcDbEntity
8
1
100
AcDbCircle
6
CONTINUOUS
62
5
10
-193.971535
20
400.595822
40
0.425000
100
AcDbArc
50
89.999999
51
179.999998
0
POLYLINE
5
9f7
100
AcDbEntity
8
1
6
CONTINUOUS
62
5
100
AcDb2dPolyline
66
1
10
0.0
20
0.0
30
0.0
70
0
0
VERTEX
5
9f8
100
AcDbEntity
8
1
100
AcDbVertex
100
AcDb2dVertex
62
5
10
-193.971535
20
401.020822
0
VERTEX
5
9f9
100
AcDbEntity
8
1
100
AcDbVertex
100
AcDb2dVertex
62
5
10
-94.896535
20
401.020822
0
VERTEX
5
9fa
100
AcDbEntity
8
1
100
AcDbVertex
100
AcDb2dVertex
62
5
10
-94.896535
20
400.720822
0
VERTEX
5
9fb
100
AcDbEntity
8
1
100
AcDbVertex
100
AcDb2dVertex
62
5
10
-193.971535
20
400.720822
0
SEQEND
5
9fc
100
AcDbEntity
8
1
0
ARC
5
9fd
100
AcDbEntity
8
1
100
AcDbCircle
6
CONTINUOUS
62
5
10
-95.146535
20
400.470822
40
0.250000
100
AcDbArc
50
0.000000
51
89.999999
0
POLYLINE
5
9fe
100
AcDbEntity
8
1
6
CONTINUOUS
62
5
100
AcDb2dPolyline
66
1
10
0.0
20
0.0
30
0.0
70
0
0
VERTEX
5
9ff
100
AcDbEntity
8
1
100
AcDbVertex
100
AcDb2dVertex
62
5
10
-95.146535
20
400.720822
0
VERTEX
5
a00
100
AcDbEntity
8
1
100
AcDbVertex
100
AcDb2dVertex
62
5
10
-99.146535
20
400.720822
0
VERTEX
5
a01
100
AcDbEntity
8
1
100
AcDbVertex
100
AcDb2dVertex
62
5
10
-99.146535
20
400.220822
0
VERTEX
5
a02
100
AcDbEntity
8
1
100
AcDbVertex
100
AcDb2dVertex
62
5
10
-99.896535
20
400.220822
0
VERTEX
5
a03
100
AcDbEntity
8
1
100
AcDbVertex
100
AcDb2dVertex
62
5
10
-99.896535
20
400.720822
0
VERTEX
5
a04
100
AcDbEntity
8
1
100
AcDbVertex
100
AcDb2dVertex
62
5
10
-193.671535
20
400.720822
0
VERTEX
5
a05
100
AcDbEntity
8
1
100
AcDbVertex
100
AcDb2dVertex
62
5
10
-193.671535
20
400.295822
0
VERTEX
5
a06
100
AcDbEntity
8
1
100
AcDbVertex
100
AcDb2dVertex
62
5
10
-194.096535
20
400.295822
0
VERTEX
5
a07
100
AcDbEntity
8
1
100
AcDbVertex
100
AcDb2dVertex
62
5
10
-194.096535
20
356.520822
0
VERTEX
5
a08
100
AcDbEntity
8
1
100
AcDbVertex
100
AcDb2dVertex
62
5
10
-193.596535
20
356.520822
0
VERTEX
5
a09
100
AcDbEntity
8
1
100
AcDbVertex
100
AcDb2dVertex
62
5
10
-193.596535
20
355.770822
0
VERTEX
5
a0a
100
AcDbEntity
8
1
100
AcDbVertex
100
AcDb2dVertex
62
5
10
-194.096535
20
355.770822
0
VERTEX
5
a0b
100
AcDbEntity
8
1
100
AcDbVertex
100
AcDb2dVertex
62
5
10
-194.096535
20
351.770822
0
SEQEND
5
a0c
100
AcDbEntity
8
1
0
ARC
5
a0d
100
AcDbEntity
8
1
100
AcDbCircle
6
CONTINUOUS
62
5
10
-193.846535
20
351.770822
40
0.250000
100
AcDbArc
50
179.999998
51
-89.999999
0
LINE
5
a0e
100
AcDbEntity
8
1
100
AcDbLine
6
CONTINUOUS
62
5
10
-193.846535
20
351.520822
11
-95.146535
21
351.520822
0
ARC
5
a0f
100
AcDbEntity
8
1
100
AcDbCircle
6
CONTINUOUS
62
5
10
-95.146535
20
351.770822
40
0.250000
100
AcDbArc
50
-89.999999
51
0.000000
0
LINE
5
a10
100
AcDbEntity
8
1
100
AcDbLine
6
CONTINUOUS
62
5
10
-94.896535
20
351.770822
11
-94.896535
21
400.470822
0
POLYLINE
5
a11
100
AcDbEntity
8
1
6
CONTINUOUS
62
5
100
AcDb2dPolyline
66
1
10
0.0
20
0.0
30
0.0
70
0
0
VERTEX
5
a12
100
AcDbEntity
8
1
100
AcDbVertex
100
AcDb2dVertex
62
5
10
-109.896535
20
462.387858
0
VERTEX
5
a13
100
AcDbEntity
8
1
100
AcDbVertex
100
AcDb2dVertex
62
5
10
-108.109069
20
462.387858
0
VERTEX
5
a14
100
AcDbEntity
8
1
100
AcDbVertex
100
AcDb2dVertex
62
5
10
-107.909069
20
462.187858
0
VERTEX
5
a15
100
AcDbEntity
8
1
100
AcDbVertex
100
AcDb2dVertex
62
5
10
-107.509069
20
462.187858
0
VERTEX
5
a16
100
AcDbEntity
8
1
100
AcDbVertex
100
AcDb2dVertex
62
5
10
-107.509069
20
458.812858
0
VERTEX
5
a17
100
AcDbEntity
8
1
100
AcDbVertex
100
AcDb2dVertex
62
5
10
-107.509069
20
455.437858
0
VERTEX
5
a18
100
AcDbEntity
8
1
100
AcDbVertex
100
AcDb2dVertex
62
5
10
-107.909069
20
455.437858
0
VERTEX
5
a19
100
AcDbEntity
8
1
100
AcDbVertex
100
AcDb2dVertex
62
5
10
-108.109069
20
455.237858
0
VERTEX
5
a1a
100
AcDbEntity
8
1
100
AcDbVertex
100
AcDb2dVertex
62
5
10
-109.896535
20
455.237858
0
SEQEND
5
a1b
100
AcDbEntity
8
1
0
LINE
5
a1c
100
AcDbEntity
8
1
100
AcDbLine
6
CONTINUOUS
62
5
10
-107.909069
20
462.187858
11
-107.909069
21
455.437858
0
LINE
5
a1d
100
AcDbEntity
8
1
100
AcDbLine
6
CONTINUOUS
62
5
10
-108.109069
20
462.387858
11
-108.109069
21
455.237858
0
POLYLINE
5
a1e
100
AcDbEntity
8
1
6
CONTINUOUS
62
5
100
AcDb2dPolyline
66
1
10
0.0
20
0.0
30
0.0
70
0
0
VERTEX
5
a1f
100
AcDbEntity
8
1
100
AcDbVertex
100
AcDb2dVertex
62
5
10
-111.896160
20
455.062858
0
VERTEX
5
a20
100
AcDbEntity
8
1
100
AcDbVertex
100
AcDb2dVertex
62
5
10
-110.071535
20
455.062858
0
VERTEX
5
a21
100
AcDbEntity
8
1
100
AcDbVertex
100
AcDb2dVertex
62
5
10
-109.821535
20
455.312858
0
VERTEX
5
a22
100
AcDbEntity
8
1
100
AcDbVertex
100
AcDb2dVertex
62
5
10
-109.571535
20
455.312858
0
VERTEX
5
a23
100
AcDbEntity
8
1
100
AcDbVertex
100
AcDb2dVertex
62
5
10
-109.571535
20
462.312858
0
VERTEX
5
a24
100
AcDbEntity
8
1
100
AcDbVertex
100
AcDb2dVertex
62
5
10
-109.821535
20
462.312858
0
VERTEX
5
a25
100
AcDbEntity
8
1
100
AcDbVertex
100
AcDb2dVertex
62
5
10
-110.071535
20
462.562858
0
VERTEX
5
a26
100
AcDbEntity
8
1
100
AcDbVertex
100
AcDb2dVertex
62
5
10
-111.896160
20
462.562858
0
SEQEND
5
a27
100
AcDbEntity
8
1
0
POLYLINE
5
a28
100
AcDbEntity
8
1
6
CONTINUOUS
62
5
100
AcDb2dPolyline
66
1
10
0.0
20
0.0
30
0.0
70
1
0
VERTEX
5
a29
100
AcDbEntity
8
1
100
AcDbVertex
100
AcDb2dVertex
62
5
10
-110.071535
20
462.562858
0
VERTEX
5
a2a
100
AcDbEntity
8
1
100
AcDbVertex
100
AcDb2dVertex
62
5
10
-110.946535
20
462.562858
0
VERTEX
5
a2b
100
AcDbEntity
8
1
100
AcDbVertex
100
AcDb2dVertex
62
5
10
-110.946535
20
455.062858
0
VERTEX
5
a2c
100
AcDbEntity
8
1
100
AcDbVertex
100
AcDb2dVertex
62
5
10
-110.071535
20
455.062858
0
VERTEX
5
a2d
100
AcDbEntity
8
1
100
AcDbVertex
100
AcDb2dVertex
62
5
10
-110.071535
20
462.562858
0
SEQEND
5
a2e
100
AcDbEntity
8
1
0
LINE
5
a2f
100
AcDbEntity
8
1
100
AcDbLine
6
CONTINUOUS
62
5
10
-110.071535
20
462.562858
11
-110.071535
21
455.062858
0
LINE
5
a30
100
AcDbEntity
8
1
100
AcDbLine
6
CONTINUOUS
62
5
10
-110.946535
20
455.062858
11
-110.946535
21
462.562858
0
LINE
5
a31
100
AcDbEntity
8
1
100
AcDbLine
6
CONTINUOUS
62
5
10
-109.821535
20
455.312858
11
-109.821535
21
462.312858
0
LINE
5
a32
100
AcDbEntity
8
1
100
AcDbLine
6
CONTINUOUS
62
5
10
-184.396537
20
459.292533
11
-184.021537
21
459.292533
0
LINE
5
a33
100
AcDbEntity
8
1
100
AcDbLine
6
CONTINUOUS
62
5
10
-184.396537
20
459.399482
11
-184.021537
21
459.399482
0
LINE
5
a34
100
AcDbEntity
8
1
100
AcDbLine
6
CONTINUOUS
62
5
10
-184.396537
20
459.592532
11
-184.021537
21
459.592532
0
LINE
5
a35
100
AcDbEntity
8
1
100
AcDbLine
6
CONTINUOUS
62
5
10
-184.396537
20
459.482558
11
-184.021537
21
459.482558
0
LINE
5
a36
100
AcDbEntity
8
1
100
AcDbLine
6
CONTINUOUS
62
5
10
-184.396537
20
459.670756
11
-184.021537
21
459.670756
0
ARC
5
a37
100
AcDbEntity
8
1
100
AcDbCircle
6
CONTINUOUS
62
5
10
-175.646535
20
458.812858
40
10.000000
100
AcDbArc
50
162.504697
51
-162.504693
0
LINE
5
a38
100
AcDbEntity
8
1
100
AcDbLine
6
CONTINUOUS
62
5
10
-184.396537
20
455.062858
11
-184.396537
21
462.562858
0
LINE
5
a39
100
AcDbEntity
8
1
100
AcDbLine
6
CONTINUOUS
62
5
10
-184.021537
20
455.062858
11
-184.021537
21
462.562858
0
LINE
5
a3a
100
AcDbEntity
8
1
100
AcDbLine
6
CONTINUOUS
62
5
10
-183.584500
20
462.287856
11
-183.584500
21
455.337859
0
LINE
5
a3b
100
AcDbEntity
8
0
100
AcDbLine
6
CONTINUOUS
62
5
10
-183.021535
20
460.939417
11
-183.021535
21
456.686304
0
LINE
5
a3c
100
AcDbEntity
8
0
100
AcDbLine
6
CONTINUOUS
62
5
10
-183.146547
20
460.687853
11
-183.146547
21
457.912829
0
LINE
5
a3d
100
AcDbEntity
8
1
100
AcDbLine
6
CONTINUOUS
62
5
10
-184.396537
20
459.009109
11
-184.021537
21
459.009109
0
LINE
5
a3e
100
AcDbEntity
8
1
100
AcDbLine
6
CONTINUOUS
62
5
10
-184.396537
20
459.101184
11
-184.021537
21
459.101184
0
LINE
5
a3f
100
AcDbEntity
8
1
100
AcDbLine
6
CONTINUOUS
62
5
10
-184.396537
20
459.204833
11
-184.021537
21
459.204833
0
POLYLINE
5
a40
100
AcDbEntity
8
1
6
CONTINUOUS
62
5
100
AcDb2dPolyline
66
1
10
0.0
20
0.0
30
0.0
70
1
0
VERTEX
5
a41
100
AcDbEntity
8
1
100
AcDbVertex
100
AcDb2dVertex
62
5
10
-181.896535
20
418.812858
0
VERTEX
5
a42
100
AcDbEntity
8
1
100
AcDbVertex
100
AcDb2dVertex
62
5
10
-111.896535
20
418.812858
0
VERTEX
5
a43
100
AcDbEntity
8
1
100
AcDbVertex
100
AcDb2dVertex
62
5
10
-111.896535
20
468.312858
0
VERTEX
5
a44
100
AcDbEntity
8
1
100
AcDbVertex
100
AcDb2dVertex
62
5
10
-181.896535
20
468.312858
0
SEQEND
5
a45
100
AcDbEntity
8
1
0
LINE
5
a46
100
AcDbEntity
8
1
100
AcDbLine
6
DOT2
62
3
10
-94.896535
20
506.441273
11
-79.896535
21
506.441273
0
LINE
5
a47
100
AcDbEntity
8
1
100
AcDbLine
6
DOT2
62
3
10
-99.940363
20
504.441273
11
-79.896535
21
504.441273
0
POLYLINE
5
a48
100
AcDbEntity
8
1
6
DOT2
62
3
100
AcDb2dPolyline
66
1
10
0.0
20
0.0
30
0.0
70
0
0
VERTEX
5
a49
100
AcDbEntity
8
1
100
AcDbVertex
100
AcDb2dVertex
62
3
10
-80.896535
20
495.502136
0
VERTEX
5
a4a
100
AcDbEntity
8
1
100
AcDbVertex
100
AcDb2dVertex
62
3
10
-80.896535
20
504.441273
0
VERTEX
5
a4b
100
AcDbEntity
8
1
100
AcDbVertex
100
AcDb2dVertex
62
3
10
-80.388535
20
501.393273
0
VERTEX
5
a4c
100
AcDbEntity
8
1
100
AcDbVertex
100
AcDb2dVertex
62
3
10
-81.404535
20
501.393273
0
VERTEX
5
a4d
100
AcDbEntity
8
1
100
AcDbVertex
100
AcDb2dVertex
62
3
10
-80.896535
20
504.441273
0
VERTEX
5
a4e
100
AcDbEntity
8
1
100
AcDbVertex
100
AcDb2dVertex
62
3
10
-80.642535
20
501.393273
0
VERTEX
5
a4f
100
AcDbEntity
8
1
100
AcDbVertex
100
AcDb2dVertex
62
3
10
-81.150535
20
501.393273
0
VERTEX
5
a50
100
AcDbEntity
8
1
100
AcDbVertex
100
AcDb2dVertex
62
3
10
-80.896535
20
504.441273
0
SEQEND
5
a51
100
AcDbEntity
8
1
0
LINE
5
a52
100
AcDbEntity
8
1
100
AcDbLine
6
DOT2
62
3
10
-80.896535
20
504.441273
11
-80.896535
21
506.441273
0
POLYLINE
5
a53
100
AcDbEntity
8
1
6
DOT2
62
3
100
AcDb2dPolyline
66
1
10
0.0
20
0.0
30
0.0
70
0
0
VERTEX
5
a54
100
AcDbEntity
8
1
100
AcDbVertex
100
AcDb2dVertex
62
3
10
-80.896535
20
511.489273
0
VERTEX
5
a55
100
AcDbEntity
8
1
100
AcDbVertex
100
AcDb2dVertex
62
3
10
-80.896535
20
506.441273
0
VERTEX
5
a56
100
AcDbEntity
8
1
100
AcDbVertex
100
AcDb2dVertex
62
3
10
-81.404535
20
509.489273
0
VERTEX
5
a57
100
AcDbEntity
8
1
100
AcDbVertex
100
AcDb2dVertex
62
3
10
-80.388535
20
509.489273
0
VERTEX
5
a58
100
AcDbEntity
8
1
100
AcDbVertex
100
AcDb2dVertex
62
3
10
-80.896535
20
506.441273
0
VERTEX
5
a59
100
AcDbEntity
8
1
100
AcDbVertex
100
AcDb2dVertex
62
3
10
-81.150535
20
509.489273
0
VERTEX
5
a5a
100
AcDbEntity
8
1
100
AcDbVertex
100
AcDb2dVertex
62
3
10
-80.642535
20
509.489273
0
VERTEX
5
a5b
100
AcDbEntity
8
1
100
AcDbVertex
100
AcDb2dVertex
62
3
10
-80.896535
20
506.441273
0
SEQEND
5
a5c
100
AcDbEntity
8
1
0
TEXT
5
a5d
100
AcDbEntity
8
1
62
3
100
AcDbText
10
-81.772035
20
496.716336
40
4.000000
41
0.825
1
8
50
90.000000
7
STANDARD
72
0
100
AcDbText
0
LINE
5
a5e
100
AcDbEntity
8
1
100
AcDbLine
6
DOT2
62
3
10
-95.321535
20
555.941273
11
-79.896535
21
555.941273
0
LINE
5
a5f
100
AcDbEntity
8
1
100
AcDbLine
6
DOT2
62
3
10
-94.896535
20
506.441273
11
-79.896535
21
506.441273
0
POLYLINE
5
a60
100
AcDbEntity
8
1
6
DOT2
62
3
100
AcDb2dPolyline
66
1
10
0.0
20
0.0
30
0.0
70
0
0
VERTEX
5
a61
100
AcDbEntity
8
1
100
AcDbVertex
100
AcDb2dVertex
62
3
10
-80.896535
20
530.978773
0
VERTEX
5
a62
100
AcDbEntity
8
1
100
AcDbVertex
100
AcDb2dVertex
62
3
10
-80.896535
20
506.441273
0
VERTEX
5
a63
100
AcDbEntity
8
1
100
AcDbVertex
100
AcDb2dVertex
62
3
10
-81.404535
20
509.489273
0
VERTEX
5
a64
100
AcDbEntity
8
1
100
AcDbVertex
100
AcDb2dVertex
62
3
10
-80.388535
20
509.489273
0
VERTEX
5
a65
100
AcDbEntity
8
1
100
AcDbVertex
100
AcDb2dVertex
62
3
10
-80.896535
20
506.441273
0
VERTEX
5
a66
100
AcDbEntity
8
1
100
AcDbVertex
100
AcDb2dVertex
62
3
10
-81.150535
20
509.489273
0
VERTEX
5
a67
100
AcDbEntity
8
1
100
AcDbVertex
100
AcDb2dVertex
62
3
10
-80.642535
20
509.489273
0
VERTEX
5
a68
100
AcDbEntity
8
1
100
AcDbVertex
100
AcDb2dVertex
62
3
10
-80.896535
20
506.441273
0
SEQEND
5
a69
100
AcDbEntity
8
1
0
POLYLINE
5
a6a
100
AcDbEntity
8
1
6
DOT2
62
3
100
AcDb2dPolyline
66
1
10
0.0
20
0.0
30
0.0
70
0
0
VERTEX
5
a6b
100
AcDbEntity
8
1
100
AcDbVertex
100
AcDb2dVertex
62
3
10
-80.896535
20
530.978773
0
VERTEX
5
a6c
100
AcDbEntity
8
1
100
AcDbVertex
100
AcDb2dVertex
62
3
10
-80.896535
20
555.941273
0
VERTEX
5
a6d
100
AcDbEntity
8
1
100
AcDbVertex
100
AcDb2dVertex
62
3
10
-80.388535
20
552.893273
0
VERTEX
5
a6e
100
AcDbEntity
8
1
100
AcDbVertex
100
AcDb2dVertex
62
3
10
-81.404535
20
552.893273
0
VERTEX
5
a6f
100
AcDbEntity
8
1
100
AcDbVertex
100
AcDb2dVertex
62
3
10
-80.896535
20
555.941273
0
VERTEX
5
a70
100
AcDbEntity
8
1
100
AcDbVertex
100
AcDb2dVertex
62
3
10
-80.642535
20
552.893273
0
VERTEX
5
a71
100
AcDbEntity
8
1
100
AcDbVertex
100
AcDb2dVertex
62
3
10
-81.150535
20
552.893273
0
VERTEX
5
a72
100
AcDbEntity
8
1
100
AcDbVertex
100
AcDb2dVertex
62
3
10
-80.896535
20
555.941273
0
SEQEND
5
a73
100
AcDbEntity
8
1
0
TEXT
5
a74
100
AcDbEntity
8
1
62
3
100
AcDbText
10
-81.772035
20
527.592373
40
4.000000
41
0.825
1
198
50
90.000000
7
STANDARD
72
0
100
AcDbText
0
LINE
5
a75
100
AcDbEntity
8
1
100
AcDbLine
6
DOT2
62
3
10
-181.896535
20
468.312858
11
-181.896535
21
480.812858
0
LINE
5
a76
100
AcDbEntity
8
1
100
AcDbLine
6
DOT2
62
3
10
-111.896535
20
468.312858
11
-111.896535
21
480.812858
0
POLYLINE
5
a77
100
AcDbEntity
8
1
6
DOT2
62
3
100
AcDb2dPolyline
66
1
10
0.0
20
0.0
30
0.0
70
0
0
VERTEX
5
a78
100
AcDbEntity
8
1
100
AcDbVertex
100
AcDb2dVertex
62
3
10
-146.896535
20
479.812858
0
VERTEX
5
a79
100
AcDbEntity
8
1
100
AcDbVertex
100
AcDb2dVertex
62
3
10
-181.896535
20
479.812858
0
VERTEX
5
a7a
100
AcDbEntity
8
1
100
AcDbVertex
100
AcDb2dVertex
62
3
10
-178.848535
20
480.320858
0
VERTEX
5
a7b
100
AcDbEntity
8
1
100
AcDbVertex
100
AcDb2dVertex
62
3
10
-178.848535
20
479.304858
0
VERTEX
5
a7c
100
AcDbEntity
8
1
100
AcDbVertex
100
AcDb2dVertex
62
3
10
-181.896535
20
479.812858
0
VERTEX
5
a7d
100
AcDbEntity
8
1
100
AcDbVertex
100
AcDb2dVertex
62
3
10
-178.848535
20
480.066858
0
VERTEX
5
a7e
100
AcDbEntity
8
1
100
AcDbVertex
100
AcDb2dVertex
62
3
10
-178.848535
20
479.558858
0
VERTEX
5
a7f
100
AcDbEntity
8
1
100
AcDbVertex
100
AcDb2dVertex
62
3
10
-181.896535
20
479.812858
0
SEQEND
5
a80
100
AcDbEntity
8
1
0
POLYLINE
5
a81
100
AcDbEntity
8
1
6
DOT2
62
3
100
AcDb2dPolyline
66
1
10
0.0
20
0.0
30
0.0
70
0
0
VERTEX
5
a82
100
AcDbEntity
8
1
100
AcDbVertex
100
AcDb2dVertex
62
3
10
-146.896535
20
479.812858
0
VERTEX
5
a83
100
AcDbEntity
8
1
100
AcDbVertex
100
AcDb2dVertex
62
3
10
-111.896535
20
479.812858
0
VERTEX
5
a84
100
AcDbEntity
8
1
100
AcDbVertex
100
AcDb2dVertex
62
3
10
-114.944535
20
479.304858
0
VERTEX
5
a85
100
AcDbEntity
8
1
100
AcDbVertex
100
AcDb2dVertex
62
3
10
-114.944535
20
480.320858
0
VERTEX
5
a86
100
AcDbEntity
8
1
100
AcDbVertex
100
AcDb2dVertex
62
3
10
-111.896535
20
479.812858
0
VERTEX
5
a87
100
AcDbEntity
8
1
100
AcDbVertex
100
AcDb2dVertex
62
3
10
-114.944535
20
479.558858
0
VERTEX
5
a88
100
AcDbEntity
8
1
100
AcDbVertex
100
AcDb2dVertex
62
3
10
-114.944535
20
480.066858
0
VERTEX
5
a89
100
AcDbEntity
8
1
100
AcDbVertex
100
AcDb2dVertex
62
3
10
-111.896535
20
479.812858
0
SEQEND
5
a8a
100
AcDbEntity
8
1
0
TEXT
5
a8b
100
AcDbEntity
8
1
62
3
100
AcDbText
10
-150.282935
20
480.688358
40
4.000000
41
0.825
1
280
7
STANDARD
72
0
100
AcDbText
0
LINE
5
a8c
100
AcDbEntity
8
1
100
AcDbLine
6
DOT2
62
3
10
-194.396535
20
555.941273
11
-194.396535
21
570.941273
0
LINE
5
a8d
100
AcDbEntity
8
1
100
AcDbLine
6
DOT2
62
3
10
-94.896535
20
555.516273
11
-94.896535
21
570.941273
0
POLYLINE
5
a8e
100
AcDbEntity
8
1
6
DOT2
62
3
100
AcDb2dPolyline
66
1
10
0.0
20
0.0
30
0.0
70
0
0
VERTEX
5
a8f
100
AcDbEntity
8
1
100
AcDbVertex
100
AcDb2dVertex
62
3
10
-144.646535
20
569.941273
0
VERTEX
5
a90
100
AcDbEntity
8
1
100
AcDbVertex
100
AcDb2dVertex
62
3
10
-194.396535
20
569.941273
0
VERTEX
5
a91
100
AcDbEntity
8
1
100
AcDbVertex
100
AcDb2dVertex
62
3
10
-191.348535
20
570.449273
0
VERTEX
5
a92
100
AcDbEntity
8
1
100
AcDbVertex
100
AcDb2dVertex
62
3
10
-191.348535
20
569.433273
0
VERTEX
5
a93
100
AcDbEntity
8
1
100
AcDbVertex
100
AcDb2dVertex
62
3
10
-194.396535
20
569.941273
0
VERTEX
5
a94
100
AcDbEntity
8
1
100
AcDbVertex
100
AcDb2dVertex
62
3
10
-191.348535
20
570.195273
0
VERTEX
5
a95
100
AcDbEntity
8
1
100
AcDbVertex
100
AcDb2dVertex
62
3
10
-191.348535
20
569.687273
0
VERTEX
5
a96
100
AcDbEntity
8
1
100
AcDbVertex
100
AcDb2dVertex
62
3
10
-194.396535
20
569.941273
0
SEQEND
5
a97
100
AcDbEntity
8
1
0
POLYLINE
5
a98
100
AcDbEntity
8
1
6
DOT2
62
3
100
AcDb2dPolyline
66
1
10
0.0
20
0.0
30
0.0
70
0
0
VERTEX
5
a99
100
AcDbEntity
8
1
100
AcDbVertex
100
AcDb2dVertex
62
3
10
-144.646535
20
569.941273
0
VERTEX
5
a9a
100
AcDbEntity
8
1
100
AcDbVertex
100
AcDb2dVertex
62
3
10
-94.896535
20
569.941273
0
VERTEX
5
a9b
100
AcDbEntity
8
1
100
AcDbVertex
100
AcDb2dVertex
62
3
10
-97.944535
20
569.433273
0
VERTEX
5
a9c
100
AcDbEntity
8
1
100
AcDbVertex
100
AcDb2dVertex
62
3
10
-97.944535
20
570.449273
0
VERTEX
5
a9d
100
AcDbEntity
8
1
100
AcDbVertex
100
AcDb2dVertex
62
3
10
-94.896535
20
569.941273
0
VERTEX
5
a9e
100
AcDbEntity
8
1
100
AcDbVertex
100
AcDb2dVertex
62
3
10
-97.944535
20
569.687273
0
VERTEX
5
a9f
100
AcDbEntity
8
1
100
AcDbVertex
100
AcDb2dVertex
62
3
10
-97.944535
20
570.195273
0
VERTEX
5
aa0
100
AcDbEntity
8
1
100
AcDbVertex
100
AcDb2dVertex
62
3
10
-94.896535
20
569.941273
0
SEQEND
5
aa1
100
AcDbEntity
8
1
0
TEXT
5
aa2
100
AcDbEntity
8
1
62
3
100
AcDbText
10
-148.032935
20
570.816773
40
4.000000
41
0.825
1
398
7
STANDARD
72
0
100
AcDbText
0
ENDSEC
0
SECTION
2
OBJECTS
0
DICTIONARY
5
aa3
100
AcDbDictionary
3
ACAD_GROUP
350
aa4
3
ACAD_MLINESTYLE
350
aa5
0
DICTIONARY
5
aa4
102
{ACAD_REACTORS
330
aa3
102
}
100
AcDbDictionary
0
DICTIONARY
5
aa5
102
{ACAD_REACTORS
330
aa3
102
}
100
AcDbDictionary
3
STANDARD
350
aa6
0
MLINESTYLE
5
aa6
102
{ACAD_REACTORS
330
aa5
102
}
100
AcDbMlineStyle
2
STANDARD
70
0
3

62
0
51
90.0
52
90.0
71
2
49
0.5
62
256
6
BYLAYER
49
-0.5
62
256
6
BYLAYER
0
ENDSEC
0
EOF
